» » »

Senses Fail - Closure Rebirth Tabs

Artists:  A B C D E F G H I J K L M N O P Q R S T U V W X Y Z # 

Closure Rebirth Tabs

(ver. 1) Click to play this song!
Senses Fail
 Rating:
4.3/5 (16 votes)

 Closure Rebirth  lessons Tabs too difficult? Try these video lessons and learn fast
 
                
[Intro]
D|-----------------------------------------------------------------------------------------------------------|
B|-----------------------------------------------------------------------------------------------------------|
F|-12-12-12-12-12-12-12-12-10-10-10-10-10-10-10-10--9--9--9--9--9--9--9--9-10-10-10-10-10-10-10-10-----------|
C|--x--x--x--x--x--x--x--x--x--x--x--x--x--x--x--x--x--x--x--x--x--x--x--x--x--x--x--x--x--x--x--x-----------|
G|-10-10-10-10-10-10-10-10--8--8--8--8--8--8--8--8--7--7--7--7--7--7--7--7--8--8--8--8--8--8--8--8-----------|
C|-----------------------------------------------------------------------------------------------------------|

D|-----------------------------------------------------------------------------------------------------------|
B|-----------------------------------------------------------------------------------------------------------|
F|-12-12-12-12-12-12-12-12-10-10-10-10-10-10-10-10--9--9--9--9--9--9--9--9--9--9--9--9--9--9--9--9-----------|
C|--x--x--x--x--x--x--x--x--x--x--x--x--x--x--x--x--x--x--x--x--x--x--x--x--x--x--x--x--x--x--x--x-----------|
G|-10-10-10-10-10-10-10-10--8--8--8--8--8--8--8--8--7--7--7--7--7--7--7--7--7--7--7--7--7--7--7--7-----------|
C|-----------------------------------------------------------------------------------------------------------|

D|-----------------------------------------------------------------------------------------------------------|
B|-----------------------------------------------------------------------------------------------------------|
F|-12-12-12-12-12-12-12-12-10-10-10-10-10-10-10-10--9--9--9--9--9--9--9--9-10-10-10-10-10-10-10-10-----------|
C|--x--x--x--x--x--x--x--x--x--x--x--x--x--x--x--x--x--x--x--x--x--x--x--x--x--x--x--x--x--x--x--x-----------|
G|-10-10-10-10-10-10-10-10--8--8--8--8--8--8--8--8--7--7--7--7--7--7--7--7--8--8--8--8--8--8--8--8-----------|
C|-----------------------------------------------------------------------------------------------------------|

D|-----------------------------------------------------------------------------------------------------------|
B|-----------------------------------------------------------------------------------------------------------|
F|-12-12-12-12-12-12-12-12-10-10-10-10-10-10-10-10--14-14-14-14-14-14-14-14-14-14-14-14-14-14-14-14----------|
C|--x--x--x--x--x--x--x--x--x--x--x--x--x--x--x--x---x--x--x--x--x--x--x--x--x--x--x--x--x--x--x--x----------|
G|-10-10-10-10-10-10-10-10--8--8--8--8--8--8--8--8--12-12-12-12-12-12-12-12-12-12-12-12-12-12-12-12----------|
C|-----------------------------------------------------------------------------------------------------------|



[Pre-Verse]
D|-------------------------------------------------(0)-------------------------------------------------------|
B|-------------------------------------------------(0)-------------------------------------------------------|
F|-------------------------------------------------(0)-------------------------------------------------------|
C|-0~----------------------------------------------(0)-------------------------------------------------------|
G|-0~----------------------------------------------(0)-------------------------------------------------------|
C|-0~----------------------------------------------(0)-------------------------------------------------------|

D|-----------------------------------------------------------------------------------------------------------|
B|-----------------------------------------------------------------------------------------------------------|
F|-----------------------------------------------------------------------------------------------------------|
C|-3--3--0~-----------------------------------------3--3--0~-------------------------------------------------|
G|-3--3--0~-----------------------------------------3--3--0~-------------------------------------------------|
C|-3--3--0~-----------------------------------------3--3--0~-------------------------------------------------|

D|-----------------------------------------------------------------------------------------------------------|
B|-----------------------------------------------------------------------------------------------------------|
F|-----------------------------------------------------------------------------------------------------------|
C|-3--3--0~-----------------------------------------3--3--6~-------------------------------------------------|
G|-3--3--0~-----------------------------------------3--3--6~-------------------------------------------------|
C|-3--3--0~-----------------------------------------3--3--6~-------------------------------------------------|



[Verse]
D|-----------------------------------------------------------------------------------------------------------|
B|-----------------------------------------------------------------------------------------------------------|
F|-12-12-12-12-12-12-12-12-10-10-10-10-10-10-10-10--9--9--9--9--9--9--9--9-10-10-10-10-10-10-10-10-----------|
C|--x--x--x--x--x--x--x--x--x--x--x--x--x--x--x--x--x--x--x--x--x--x--x--x--x--x--x--x--x--x--x--x-----------|
G|-10-10-10-10-10-10-10-10--8--8--8--8--8--8--8--8--7--7--7--7--7--7--7--7--8--8--8--8--8--8--8--8-----------|
C|-----------------------------------------------------------------------------------------------------------|

D|-----------------------------------------------------------------------------------------------------------|
B|-----------------------------------------------------------------------------------------------------------|
F|-12-12-12-12-12-12-12-12-10-10-10-10-10-10-10-10--9--9--9--9--9--9--9--9--9--9--9--9--9--9--9--9-----------|
C|--x--x--x--x--x--x--x--x--x--x--x--x--x--x--x--x--x--x--x--x--x--x--x--x--x--x--x--x--x--x--x--x-----------|
G|-10-10-10-10-10-10-10-10--8--8--8--8--8--8--8--8--7--7--7--7--7--7--7--7--7--7--7--7--7--7--7--7-----------|
C|-----------------------------------------------------------------------------------------------------------|

D|-----------------------------------------------------------------------------------------------------------|
B|-----------------------------------------------------------------------------------------------------------|
F|-12-12-12-12-12-12-12-12-10-10-10-10-10-10-10-10--9--9--9--9--9--9--9--9-10-10-10-10-10-10-10-10-----------|
C|--x--x--x--x--x--x--x--x--x--x--x--x--x--x--x--x--x--x--x--x--x--x--x--x--x--x--x--x--x--x--x--x-----------|
G|-10-10-10-10-10-10-10-10--8--8--8--8--8--8--8--8--7--7--7--7--7--7--7--7--8--8--8--8--8--8--8--8-----------|
C|-----------------------------------------------------------------------------------------------------------|

D|-----------------------------------------------------------------------------------------------------------|
B|-----------------------------------------------------------------------------------------------------------|
F|-12-12-12-12-12-12-12-12-10-10-10-10-10-10-10-10--14-14-14-14-14-14-14-14-14-14-14-14-14-14-14-14----------|
C|--x--x--x--x--x--x--x--x--x--x--x--x--x--x--x--x---x--x--x--x--x--x--x--x--x--x--x--x--x--x--x--x----------|
G|-10-10-10-10-10-10-10-10--8--8--8--8--8--8--8--8--12-12-12-12-12-12-12-12-12-12-12-12-12-12-12-12----------|
C|-----------------------------------------------------------------------------------------------------------|



[Pre-Chorus]
D|--------------------------------------------0--------------------------------------------------------------|
B|---------------------------------------8p6-----6-----------------------------------------------------------|
F|-----------------------------------------------------------------------------------------------------------|
C|-0~-----------------------------------------------0~-------------------------------------------------------|
G|-0~-----------------------------------------------0~-------------------------------------------------------|
C|-0~-----------------------------------------------0~-------------------------------------------------------|

D|--------------------------------------------0--------------------------------------------------------------|
B|---------------------------------------8p6-----6-----------------------------------------------------------|
F|-----------------------------------------------------------------------------------------------------------|
C|-0~-----------------------------------------------0~-------------------------------------------------------|
G|-0~-----------------------------------------------0~-------------------------------------------------------|
C|-0~-----------------------------------------------0~-------------------------------------------------------|



[Chorus]
D|-----------------------------------------------------------------------------------------------------------|
B|-13~---13~---13~---13~---13~---13~---13~---13~---12~---12~---12~---12-15~---15~---12~---12~---12~----------|
F|----12~---12~---12~---12~---12~---12~---12~---12~---12~---12~---12~------12~---12~---12~---12~-------------|
C|-----------------------------------------------------------------------------------------------------------|
G|-----------------------------------------------------------------------------------------------------------|
C|-----------------------------------------------------------------------------------------------------------|

D|-----------------------------------------------------------------------------------------------------------|
B|-13~---13~---13~---13~---13~---13~---13~---13~---12~---12~---12~---12-10~---10~---12~---12~---12~----------|
F|----12~---12~---12~---12~---12~---12~---12~---12~---12~---12~---12~------12~---12~---12~---12~-------------|
C|-----------------------------------------------------------------------------------------------------------|
G|-----------------------------------------------------------------------------------------------------------|
C|-----------------------------------------------------------------------------------------------------------|

D|-----------------------------------------------------------------------------------------------------------|
B|-13~---13~---13~---13~---13~---13~---13~---13~---12~---12~---12~---12-15~---15~---12~---12~---12~----------|
F|----12~---12~---12~---12~---12~---12~---12~---12~---12~---12~---12~------12~---12~---12~---12~-------------|
C|-----------------------------------------------------------------------------------------------------------|
G|-----------------------------------------------------------------------------------------------------------|
C|-----------------------------------------------------------------------------------------------------------|

D|-----------------------------------------------------------------------------------------------------------|
B|-13~---13~---13~---13~---13~---13~---13~---13~---12~---12~---12~---12-10~---10~---10~---10~---10~----------|
F|----12~---12~---12~---12~---12~---12~---12~---12~---12~---12~---12~------12~---12~---12~---12~-------------|
C|-----------------------------------------------------------------------------------------------------------|
G|-----------------------------------------------------------------------------------------------------------|
C|-----------------------------------------------------------------------------------------------------------|



[Breakdown]
D|-----------------------------------------------------------------------------------------------------------|
B|-----------------------------------------------------------------------------------------------------------|
F|-----------------------------------------------------------------------------------------------------------|
C|-----------------------------------------------------------------------------------------------------------|
G|-0--0--0--0--0--0--0--0--0--0--0--0--0--0--0--0--0--0--0--0--0--0--0--0--0--0--0--0--0--0--0--0--5b-----0~-|
C|-0--0--0--0--0--0--0--0--0--0--0--0--0--0--0--0--0--0--0--0--0--0--0--0--0--0--0--0--0--0--0--0-----6b--0~-|
   X  X  X  X  X  X  X  X  X  X  X  X  X  X  X  X  X  X  X  X  X  X  X  X  X  X  X  X  X  X  X  X     
                                                                          
D|-----------------------------------------------------------------------------------------------------------|
B|-----------------------------------------------------------------------------------------------------------|
F|-----------------------------------------------------------------------------------------------------------|
C|-----------------------------------------------------------------------------------------------------------|
G|-1--0--0--0--0--0--0--0--0--0--0--0--0--0--0--0--0--0--0--0--0--0--0--0--0--0--0--0--0--0--0--0------------|
C|-1--0--0--0--0--0--0--0--0--0--0--0--0--0--0--0--0--0--0--0--0--0--0--0--0--0--0--0--0--0--0--0------------|
         X  X  X  X  X  X  X  X  X  X  X  X  X  X  X  X  X  X  X  X  X  X  X  X  X  X  X  X  X  X

D|-----------------------------------------------------------------------------------------------------------|
B|-----------------------------------------------------------------------------------------------------------|
F|-----------------------------------------------------------------------------------------------------------|
C|-----------------------------------------------------------------------------------------------------------|
G|-1--0--0--0--0--0--0--0--1--0--0--0--0--0--0--0--1--0--0--0--0--0--0--0--1--0--0--0--0--------0------------|
C|-1--0--0--0--0--0--0--0--1--0--0--0--0--0--0--0--1--0--0--0--0--0--0--0--1--0--0--0--0--5--6--0------------|
         X  X  X  X  X  X        X  X  X  X  X  X        X  X  X  X  X  X        X  X  X

D|-----------------------------------------------------------------------------------------------------------|
B|-----------------------------------------------------------------------------------------------------------|
F|-----------------------------------------------------------------------------------------------------------|
C|-----------------------------------------------------------------------------------------------------------|
G|-1--0--0--0--0--0--0--0--1--0--0--0--0--0--0--0--1--0--0--0--0--0--0--0--1--0------------------------------|
C|-1--0--0--0--0--0--0--0--1--0--0--0--0--0--0--0--1--0--0--0--0--0--0--0--1--0------------------------------|
         X  X  X  X  X  X        X  X  X  X  X  X        X  X  X  X  X  X




[Chorus/Outro]
D|-----------------------------------------------------------------------------------------------------------|
B|-13~---13~---13~---13~---13~---13~---13~---13~---12~---12~---12~---12-15~---15~---12~---12~---12~----------|
F|----12~---12~---12~---12~---12~---12~---12~---12~---12~---12~---12~------12~---12~---12~---12~-------------|
C|-----------------------------------------------------------------------------------------------------------|
G|-----------------------------------------------------------------------------------------------------------|
C|-----------------------------------------------------------------------------------------------------------|

D|-----------------------------------------------------------------------------------------------------------|
B|-13~---13~---13~---13~---13~---13~---13~---13~---12~---12~---12~---12-10~---10~---12~---12~---12~----------|
F|----12~---12~---12~---12~---12~---12~---12~---12~---12~---12~---12~------12~---12~---12~---12~-------------|
C|-----------------------------------------------------------------------------------------------------------|
G|-----------------------------------------------------------------------------------------------------------|
C|-----------------------------------------------------------------------------------------------------------|

D|-----------------------------------------------------------------------------------------------------------|
B|-13~---13~---13~---13~---13~---13~---13~---13~---12~---12~---12~---12-15~---15~---12~---12~---12~----------|
F|----12~---12~---12~---12~---12~---12~---12~---12~---12~---12~---12~------12~---12~---12~---12~-------------|
C|-----------------------------------------------------------------------------------------------------------|
G|-----------------------------------------------------------------------------------------------------------|
C|-----------------------------------------------------------------------------------------------------------|

D|-----------------------------------------------------------------------------------------------------------|
B|-13~---13~---13~---13~---13~---13~---13~---13~---12~---12~---12~---12-10~---10~---10~---10~---10~----------|
F|----12~---12~---12~---12~---12~---12~---12~---12~---12~---12~---12~------12~---12~---12~---12~-------------|
C|-----------------------------------------------------------------------------------------------------------|
G|-----------------------------------------------------------------------------------------------------------|
C|-----------------------------------------------------------------------------------------------------------|            
Submit corrections


        Closure Rebirth  lessons Hard to play? Try these video lessons and learn fast Closure Rebirth  lessons
        
↑ Back to top | Tablatures and chords for acoustic guitar and electric guitar, ukulele, drums are parodies/interpretations of the original songs. You may use it for private study, scholarship, research or language learning purposes only