» » »

Senses Fail - Canine Tabs

Artists:  A B C D E F G H I J K L M N O P Q R S T U V W X Y Z # 

Canine Tabs

(ver. 1) Click to play this song!
Senses Fail
 Rating:
3.1/5 (30 votes)

 Canine  lessons Tabs too difficult? Try these video lessons and learn fast
 
                Tuning: Drop C

D|-----------------------------|
A|-----------------------------|
F|-----------------------------|x4
C|-------------x4-3-5-3-6-5-3--|
G|----5555--------3-5-3-6-5-3--|
C|0000----6666----3-5-3-6-5-3--|

D|---------------------------------------------------------------------|
A|---------------------------------------------------------------------|
F|---------------------------------------------------------------------|
C|3-5-3-6-5-3-0-3-0-6-5-3-0-3-0-6666-0-3-0-6666\6666-8888888888888887--|
G|3-5-3-6-5-3-0-3-0-6-5-3-0-3-0-6666-0-3-0-6666\6666-8888888888888887--|
C|3-5-3-6-5-3-0-3-0-6-5-3-0-3-0-6666-0-3-0-6666\6666-8888888888888887--|
                                TTTT                 TTTTTTTTTTTTTTT
Pre-Chorus
D|------------------------------------------------------------------------------------|
A|------------------------------------------------------------------------------------|
F|------------------------------------------------------------------------------------|x4
C|0-3-0-6666--------------------------------------------------------------------------|
G|0-3-0-6666--------------------------------------------------------------------------|
C|0-3-0-6666--------------------------------------------------------------------------|
        TTTT

Chorus
D|-------------------------------------------------------------------------3+--|
A|-----------------------------------------------------------------------------|
F|-----------------------------------------------------------------------------|
C|0000000000000000--88888888888888888--33333333333333333--4444444444444444-----|
G|0000000000000000--88888888888888888--33333333333333333--4444444444444444-----|
C|0000000000000000--88888888888888888--33333333333333333--4444444444444444-----|

D|--------------------------------------------------------------------------|
A|--------------------------------------------------------------------------|
F|--------------------------------------------------------------------------|
C|0000000000000000--88888888888888888--33333333333333333--4444444444444444--|
G|0000000000000000--88888888888888888--33333333333333333--4444444444444444--|
C|0000000000000000--88888888888888888--33333333333333333--4444444444444444--|

End Chorus
D|--------------------------------------------------------------------------------------|
A|--------------------------------------------------------------------------------------|
F|--------------------------------------------------------------------------------------|
C|0-3-0-0-3-0---------------------------------------------------------------------------|
G|0-3-0-0-3-0---------------------------------------------------------------------------|
C|0-3-0-0-3-0--15\----------------------------------------------------------------------|

D|-----------------------------------------------------------------------------|
A|-----------------------------------------------------------------------------|
F|-----------------------------------------------------------------------------|
C|0-3-0-6-5-3-0-3-0-6666-0-3-0-6-5-3-0-3-0-6666\6666-x---x--0-3-0-6-5-3-0-3-0--|
G|0-3-0-6-5-3-0-3-0-6666-0-3-0-6-5-3-0-3-0-6666\6666-x---x--0-3-0-6-5-3-0-3-0--|
C|0-3-0-6-5-3-0-3-0-6666-0-3-0-6-5-3-0-3-0-6666\6666-x---x--0-3-0-6-5-3-0-3-0--|
                    TTTT                   TTTT TTTT
D|-------------------------------------|
A|-------------------------------------|
F|-------------------------------------|
C|6666\6666\6666-0--6\6\6-3-6\6\6------|
G|6666\6666\6666-0--6\6\6-3-6\6\6------|
C|6666\6666\6666-0--6\6\6-3-6\6\6--3/--|
                 *
Repeat Chorus

D|------------------------------------------------------------------------------------|
A|------------------------------------------------------------------------------------|
F|------------------------------------------------------------------------------------|x4
C|0003330-----------------------------------------------------------------------------|
G|0003330-----------------------------------------------------------------------------|
C|0003330-----------------------------------------------------------------------------|

D|-------------------------------------------------------------------------------|
A|-------------------------------------------------------------------------------|
D|-------------------------------------------------------------------------------|
C|-------------------------------------------------------------------------------|
G|-------------------------------------------------------------------------------|
C|3/-----------------------------------------------------------------------------|

D|---------------------------------------------------------------------------|
A|---------------------------------------------------------------------------|
F|---------------------------------------------------------------------------|
C|-----------------------------------------XXXXXX----------------------------|
G|----5555---------5555----------5555------XXXXXX-----5555---------5555------|
C|0000----6666-0000----6666-0000------6666-XXXXXX-0000----6666-0000----6666--|

D|-------------------------------------------|
A|-------------------------------------------|
D|-------------------------------------------|
C|-------------XXXXXXXXXXXXXXXXXXXXXXXXXXXX--|
G|----5555-----XXXXXXXXXXXXXXXXXXXXXXXXXXXX--|
C|0000----6666-XXXXXXXXXXXXXXXXXXXXXXXXXXXX--|

Repeat Chorus

D|------------------------------------------------------------------------|
A|------------------------------------------------------------------------|
D|------------------------------------------------------------------------|
C|0356530-0356530------0356530-0356530-XXXX-0356530-0356530------0356530--|
G|0356530-0356530-4455-0356530-0356530-XXXX-0356530-0356530-4455-0356530--|
C|0356530-0356530------0356530-0356530-XXXX-0356530-0356530------0356530--|

D|------------------------------------------------------------------------------------|
A|------------------------------------------------------------------------------------|
D|------------------------------------------------------------------------------------|
C|0356530-----------------------------------------------------------------------------|
G|0356530-----------------------------------------------------------------------------|
C|0356530-----------------------------------------------------------------------------|            
Submit corrections


        Canine  lessons Hard to play? Try these video lessons and learn fast Canine  lessons
        
↑ Back to top | Tablatures and chords for acoustic guitar and electric guitar, ukulele, drums are parodies/interpretations of the original songs. You may use it for private study, scholarship, research or language learning purposes only