» » »

Senses Fail - Calling All CarsIntro Tabs

Artists:  A B C D E F G H I J K L M N O P Q R S T U V W X Y Z # 

Calling All CarsIntro Tabs

(ver. 1) Click to play this song!
Senses Fail
 Rating:
4/5 (4 votes)

 Calling All CarsIntro lessons Tabs too difficult? Try these video lessons and learn fast
 
                ----------------------------------------------------------------------------
                        Calling All Cars - Senses Fail
-----------------------------------------------------------------------------


Tuning:DADGBe

Beginning Intro (Guitar 1)
e|--------------------------------------------------------------------------|
B|--------------------------------------------------------------------------|
G|---PM these-----------------7---------------------------------------------|
D|-9--7--0--5----end on this--7---------------------------------------------|
A|-9--7--0--5-----------------5---------------------------------------------|
D|-9--7--0--5-----------------5---------------------------------------------|

Find the rythym for yourself
Second Intro (Guitar 1)
e|---------------------------------------------------------------------------|
B|---------------------------------------------------------------------------|
G|---------------------------------------------------------------------------|
D|-9--7--0--5----------------------------------------------------------------|
A|-9--7--0--5----------------------------------------------------------------|
D|-9--7--0--5----------------------------------------------------------------|

Second Intro (Guitar 2)
e|------------------------------10-9-7---------------------------------------|
B|------10-----10-----10-----10--------10------10-----10-----12-----10-------|
G|--6-7----6-7----6-7----6-7---------------6-7----6-7----6-7----6-7----------|
D|---------------------------------------------------------------------------|
A|---------------------------------------------------------------------------|
D|---------------------------------------------------------------------------|

Second Intro CONTINUED (Guitar 2)
e|--------------------17-14-14-14/15\14----------------------17-14-14--------|
B|--14-15-14-15/17-15-------------------15-15-15\14-14/15-15-----------------|
G|---------------------------------------------------------------------------|
D|---------------------------------------------------------------------------|
A|---------------------------------------------------------------------------|
E|---------------------------------------------------------------------------|
Second Intro CONTINUED (GUitar 2)
e|-14/15\14-----------------------------------------------------------------|
B|----------15-15-15\14-14/15-----------------------------------------------|
G|--------------------------------------------------------------------------|
D|--------------------------------------------------------------------------|
A|--------------------------------------------------------------------------|
E|--------------------------------------------------------------------------|

| /  slide up
| \  slide down
| h  hammer-on
| p  pull-off
| ~  vibrato
| +  harmonic
| x  Mute note
===============================================================================
            
Submit corrections


        Calling All CarsIntro lessons Hard to play? Try these video lessons and learn fast Calling All CarsIntro lessons
        
↑ Back to top | Tablatures and chords for acoustic guitar and electric guitar, ukulele, drums are parodies/interpretations of the original songs. You may use it for private study, scholarship, research or language learning purposes only