» » »

Senses Fail - Buried A Lie Tabs

Artists:  A B C D E F G H I J K L M N O P Q R S T U V W X Y Z # 

Buried A Lie Tabs

(ver. 1) Click to play this song!
Senses Fail
 Rating:
4.3/5 (21 vote)

 Buried A Lie lessons Tabs too difficult? Try these video lessons and learn fast
 
                [Intro]

    LEAD
D|---------------------------------------------------------------------------|
A|---------------------------------------------------------------------------|
G|-----2------------------2--------------------------------------------------|
D|---0------4---2----0--0-------4---2----------------------------------------|
A|-4----------4-------4-----------4------------------------------------------|
E|---------------------------------------------------------------------------|

    RHYTHM
D|---------------------------------------------------------------------------|
A|---------------------------------------------------------------------------|
G|----4--7----11--9----------------------------------------------------------|
D|----4--7----11--9----x2----------------------------------------------------|
A|----2--5----9---7----------------------------------------------------------|
E|----2--5----9---7----------------------------------------------------------|


[Intro Part 2]

    LEAD  (This is a very RHYTHMic part. Include upstrokes? and downstrokes?)
   ? ? ? ? ? ? ?    ?  ?     ? ? ?     ?   ? ? ? ? ?    ? ?   ? ? ?
D|---------------------------------------------------------------------------|
A|---------------------------------------------------------------------------|
G|-6-6-6-7-7-7-14---14-14---14-14-14---11--11111112-9---9-9---9\1111---------|
D|-------------------------------------------------------------------x2------|
A|-4-4-4-5-5-5-12---12-12---12-12-12---9---9-9-9-10-7---7-7---7\9-9----------|
E|---------------------------------------------------------------------------|

    RHYTHM  (Same RHYTHM as LEAD)
D|---------------------------------------------------------------------------|
A|---------------------------------------------------------------------------|
G|-6---7---11--9-------------------------------------------------------------|
D|-4---5---9---7---x2--------------------------------------------------------|
A|-4---5---9---7-------------------------------------------------------------|
E|-4---5---9---7-------------------------------------------------------------|


[Pre-Verse]

    LEAD and RHYTHM
D|---------------------------------------------------------------------------|
A|---------------------------------------------------------------------------|
G|---------------------------------------------------------------------------|
D|-5-5-5-0-0-0-5-5-5-0-0-0-5-5-5-5-------------------------------------------|
A|-5-5-5-0-0-0-5-5-5-0-0-0-5-5-5-5--x2---------------------------------------|
E|-5-5-5-0-0-0-5-5-5-0-0-0-5-5-5-5-------------------------------------------|


[Verses]

    LEAD  (Verse Part 1) NOTE** RHYTHM guitar plays this for both verse parts
D|---------------------------------------------------------------------------|
A|---------------------------------------------------------------------------|
G|---------------------------------------------------------------------------|
D|---0------5-------9-------5------------------------------------------------|
A|---0-x16--5-x16---9-x16---5-x16--------------------------------------------|
E|---0------5-------9-------5------------------------------------------------|
    *Palm mute all

    LEAD (Verse Part 2) 
D|---------------7-7---------------|-------------7-7-------------------------|
A|---4-4-4-5-5-5-----9-9-9-7-7-7-7-|-4-4-4-5-5-5-----9-9-9-10-10-10-10-10----|
G|---------------------------------|-----------------------------------------|
D|---------------------------------|-----------------------------------------|
A|---------------------------------|-----------------------------------------|
E|---------------------------------|-----------------------------------------|
    *Palm mute all

D|---------------7-7---------------|-----------------------------------------|
A|---4-4-4-5-5-5-----9-9-9-7-7-7-7-|-3-x16-----------------------------------|
G|---------------------------------|-----------------------------------------|
D|---------------------------------|-----------------------------------------|
A|---------------------------------|-----------------------------------------|
E|---------------------------------|-----------------------------------------|
     *Palm mute all                  *No Palm mute


[Chorus]

    Note** RHYTHM guitar is the same as Intro Part 2

    LEAD
D|--7---------------------------|--7---------------------------------------|
A|--------5---7-\-9~~-----------|--------5------7-\-9----5---7-h-9-p-7-----|
G|------------------------------|--------------------------------------9---|
D|------------------------------|------------------------------------------|
A|------------------------------|------------------------------------------|
E|------------------------------|------------------------------------------|


D|--7---------------------------|--7---------------------------------------|
A|--------5------7-\-9~~--------|--------5------7-\-9---5---7-h-9-p-7------|
G|------------------------------|--------------------------------------9---|
D|------------------------------|------------------------------------------|
A|------------------------------|------------------------------------------|
E|------------------------------|------------------------------------------|


[Post-Chorus]

    LEAD
D|---------------------------------------------------------------------------|
A|---------------------------------------------------------------------------|
G|-8-\-9~~-----(LEAD does Vibrato on the 9 for the whole post chorus)--------|
D|---------------------------------------------------------------------------|
A|---------------------------------------------------------------------------|
E|---------------------------------------------------------------------------|

    RHYTHM
D|---------------------------------------------------------------------------|
A|---------------------------------------------------------------------------|
G|---------------------------------------------------------------------------|
D|-5-5-5-0-0-0-5-5-5-0-0-0-5-5-5-5-------------------------------------------|
A|-5-5-5-0-0-0-5-5-5-0-0-0-5-5-5-5-------------------------------------------|
E|-5-5-5-0-0-0-5-5-5-0-0-0-5-5-5-5-------------------------------------------|

[Verse Part 1]
[Verse Part 2]
[Chorus]


[Post-Chorus]

    LEAD and RHYTHM
D|---------------------------------------------------------------------------|
A|---------------------------------------------------------------------------|
G|--7-7-7-7-7-7-7-7-7-7-7-7-7-7-7-7-111111116-6-6-6--------------------------|
D|---------------------------------------------------------------------------|
A|--5-5-5-5-5-5-5-5-5-5-5-5-5-5-5-5-9-9-9-9-4-4-4-4--------------------------|
E|---------------------------------------------------------------------------|


[Bridge]

    LEAD and RHYTHM
D|---------------------------------------------------------------------------|
A|---------------------------------------------------------------------------|
G|---------------------------------------------------------------------------|
D|---------------------------------------------------------------------------|
A|---------------------------------------------------------------------------|
E|---4-x6---0-x10---9-x6---7-x10---------------------------------------------|

D|---------------------------------------------------------------------------|
A|---------------------------------------------------------------------------|
G|---------------------------------------------------------------------------|
D|-------------------------7~~-----------------------------------------------|
A|-------------------------7~~-----------------------------------------------|
E|---4-x6---0-x10---9-x6---7~~-----------------------------------------------|


[Pre-Chorus]

    LEAD
D|---------------------------------------------------------------------------|
A|---------------------------------------------------------------------------|
G|---------------------------------------------------------------------------|
D|---------------------------------------------------------------------------|
A|-9-7-0-9-7-0-9-7-0-9-7-0-9-0-9-0-x3----------------------------------------|
E|---------------------------------------------------------------------------|

D|---------------------------------------------------------------------------|
A|---------------------------------------------------------------------------|
G|---------------------------------------------------------------------------|
D|-----------------0-5-5-5-5-5-5-5-------------------------------------------|
A|-9-7-0-9-7-0-9-7-0-5-5-5-5-5-5-5-------------------------------------------|
E|-----------------0-5-5-5-5-5-5-5-------------------------------------------|
                   *Palm mute and gradually  unchoke strings

    RHYTHM
D|---------------------------------------------------------------------------|
A|---------------------------------------------------------------------------|
G|---------------------------------------------------------------------------|
D|-5-5-5-0-0-0-5-5-5-0-0-0-5-5-5-5-------------------------------------------|
A|-5-5-5-0-0-0-5-5-5-0-0-0-5-5-5-5--x3---------------------------------------|
E|-5-5-5-0-0-0-5-5-5-0-0-0-5-5-5-5-------------------------------------------|

D|---------------------------------------------------------------------------|
A|---------------------------------------------------------------------------|
G|---------------------------------------------------------------------------|
D|-5-5-5-0-0-0-5-5-5-5-5-5-5-5-5-5-------------------------------------------|
A|-5-5-5-0-0-0-5-5-5-5-5-5-5-5-5-5-------------------------------------------|
E|-5-5-5-0-0-0-5-5-5-5-5-5-5-5-5-5-------------------------------------------|
                   *Palm mute and gradually unchoke the strings


[Final Chorus]

    LEAD  (This is a very RHYTHMic part. Include upstrokes? and downstrokes?)
   ? ? ? ? ? ? ?    ?  ?     ? ? ?     ?   ? ? ? ? ?    ? ?   ? ? ?
D|---------------------------------------------------------------------------|
A|---------------------------------------------------------------------------|
G|-6-6-6-7-7-7-14---14-14---14-14-14---11--11111112-9---9-9---9\1111---------|
D|-------------------------------------------------------------------x4------|
A|-4-4-4-5-5-5-12---12-12---12-12-12---9---9-9-9-10-7---7-7---7\9-9----------|
E|---------------------------------------------------------------------------|

    RHYTHM  (Same RHYTHM as LEAD)
D|---------------------------------------------------------------------------|
A|---------------------------------------------------------------------------|
G|-6---7---11--9-------------------------------------------------------------|
D|-4---5---9---7---x4--------------------------------------------------------|
A|-4---5---9---7-------------------------------------------------------------|
E|-4---5---9---7-------------------------------------------------------------|


[Outro]

    LEAD
D|---------------------------------------------------------------------------|
A|---------------------------------------------------------------------------|
G|---------------------------------------------------------------------------|
D|---------------------------------------------------------------------------|
A|-9-7-0-9-7-0-9-7-0-9-7-0-9-0-9-0-------------------------------------------|
E|---------------------------------------------------------------------------|

D|---------------------------------------------------------------------------|
A|---------------------------------------------------------------------------|
G|---------------------------------------------------------------------------|
D|---------------------------------0~~---------------------------------------|
A|-9-7-0-9-7-0-9-7-0-9-7-0-9-0-9-0-0~~---------------------------------------|
E|---------------------------------0~~---------------------------------------|


    RHYTHM
D|---------------------------------------------------------------------------|
A|---------------------------------------------------------------------------|
G|---------------------------------------------------------------------------|
D|-5-5-5-0-0-0-5-5-5-0-0-0-5-5-5-5-------------------------------------------|
A|-5-5-5-0-0-0-5-5-5-0-0-0-5-5-5-5-------------------------------------------|
E|-5-5-5-0-0-0-5-5-5-0-0-0-5-5-5-5-------------------------------------------|

D|---------------------------------------------------------------------------|
A|---------------------------------------------------------------------------|
G|---------------------------------------------------------------------------|
D|-5-5-5-0-0-0-5-5-5-0-0-0-5-5-5-0~~-----------------------------------------|
A|-5-5-5-0-0-0-5-5-5-0-0-0-5-5-5-0~~-----------------------------------------|
E|-5-5-5-0-0-0-5-5-5-0-0-0-5-5-5-0~~-----------------------------------------|            
Submit corrections


        Buried A Lie lessons Hard to play? Try these video lessons and learn fast Buried A Lie lessons
        
↑ Back to top | Tablatures and chords for acoustic guitar and electric guitar, ukulele, drums are parodies/interpretations of the original songs. You may use it for private study, scholarship, research or language learning purposes only