» » »

Senses Fail - Bite To Break Skin Bass

Artists:  A B C D E F G H I J K L M N O P Q R S T U V W X Y Z # 

Bite To Break Skin Bass

(ver. 1) Click to play this song!
Senses Fail
 Rating:
4.4/5 (14 votes)

 Bite To Break Skin lessons Tabs too difficult? Try these video lessons and learn fast
 
                Tuning: Drop D


Intro
G|-------------------------------------------------------------------------|
D|-------------------------------------------------------------------------|
A|-------------------------------------------------------------------------| x 2
D|-0~----------------8~----------------7~----------------8~----------------|

G|-----------------------------------------------------------|
D|-----------------------------------------------------------|
A|-----------------------------------------------------------|
D|-0-0-0-0-0-0-0-0--0-0-0-0-0-0-8-8-8-8-8-8-8-8--8-8-8-8-8-8-|
                                                                     x 2
G|-------------------------------------------------------------|
D|-------------------------------------------------------------|
A|-------------------------------------------------------------|
D|-7-7-7-7-7-7-7-7--7-7-7-7-7-7-8-8-8-8-8-8-8-8--8-8-10-10-8-8-|

Verse I
G|-------------------------------------------------------------------|
D|-------------------------------------------------------------------|
A|-------------------------------------------------------------------|
D|-0-0-0-0-0-0-0-0-0-0-0-0-0-0-0-7-7-7-7-7-7-7-7-7-7-7-7-7-7-7-7-7-7-|
                                                                             x 3
G|------------------------------------------------------------|
D|------------------------------------------------------------|
A|------------------------------------------------------------|
D|-8-8-8-8-8-8-8-8-8-8-8-8-8-8-8-8-8-8-8-8-8-8-8-7--8--10--8--|

G|-----------------------------------------------------------|
D|-----------------------------------------------------------|
A|-------------------------8-7--------------------------8-7--|
D|-0-0-0-0-0-0-0-0-0-0-0-0------7-7-7-7-7-7-7-7-7-7-7-7------|

G|------------------------------------------------------------|
D|------------------------------------------------------------|
A|------------------------------------------------------------|
D|-8-8-8-8-8-8-8-8-8-8-8-8-8-8-8-8-8-8-8-8-8-8-8-7--8--10--8--|

Pre-Chorus
G|-------------------------------------------------------------------|
D|-------------------------------------------------------------------|
A|-------------------------------------------------------------------|
D|-7-7-7-7-7-7-7-7-7-7-7-7-7-7-7-7-8-8-8-8-8-8-8-8-8-8-8-8-8-8-8-8-8-|

G|----------------------------------------------------------------------|
D|----------------------------------------------------------------------|
A|----------------------------------------------------------------------|
D|-7-7-7-7-7-7-7-7-7-7-7-7-7-7-7-7-8-8-8-8-8-8-8-8-8-10-10-10-10-10-----|

Chorus x 2
G|-----------------------------------------------------------------|
D|-----------------------------------------------------------------|
A|-----------------------------------------------------------------|
D|-0-0-0-0-0-0-0-0-0-0-0-0-0-0-0-0-8-8-8-8-8-8-8-8-8-8-8-8-8-8-8-8-|

G|-----------------------------------------------------------------|
D|-----------------------------------------------------------------|
A|-----------------------------------------------------------------|
D|-3-3-3-3-3-3-3-3-3-3-3-3-3-3-3-3-2-2-2-2-2-2-2-2-2-2-2-2-2-2-2-2-|

Verse II
G|--------------------------------------------------------------|
D|--------------------------------------------------------------|
A|---------------------------------------------------------8-7--|
D|-0-0-0-0-0-0-0-0-0-0-0-0-0-0-0-0-7-7-7-7-7-7-7-7-7-7-7-7------|

G|------------------------------------------------------------|
D|------------------------------------------------------------|
A|------------------------------------------------------------|
D|-8-8-8-8-8-8-8-8-8-8-8-8-8-8-8-8-8-8-8-8-8-8-8-7--8--10--8--|

G|-----------------------------------------------------------|
D|-----------------------------------------------------------|
A|-------------------------8-7--------------------------8-7--|
D|-0-0-0-0-0-0-0-0-0-0-0-0------7-7-7-7-7-7-7-7-7-7-7-7------|

G|------------------------------------------------------------|
D|------------------------------------------------------------|
A|------------------------------------------------------------|
D|-8-8-8-8-8-8-8-8-8-8-8-8-8-8-8-8-8-8-8-8-8-8-8-7--8--10--8--|

Pre-Chorus

Chorus

Bridge (Play this at the first scream)
G|---------------------------------------|
D|---------------------------------------|
A|---------------------------------------|
D|-0x------------------------------------|

(play softly)
G|--------------------------------------------------------------------------|
D|--------------------------------------------------------------------------|
A|--------------------------------------------------------------------------|
D|-0~----------------8~----------------7~----------------8~-------------10--|

G|---------------------------------------------------------------------------------------|
D|---------------------------------------------------------------------------------------|
A|---------------------------------------------------------------------------------------|
D|-0~----------------8~----------------7~----------------8-8-8-8-8-8-8-8-8-8-8-8-8-8-8-8-|

Breakdown x 2
G|-------------------------------------------------------------------------------|
D|-------------------------------------------------------------------------------|
A|-------------------------------------------------------------------------------|
D|-0--0--0--0x----0-0-0--0--0--0--0-0-0-0-8--8--8--8x----8-8-8--8--8--8--8-8-8-8-|

G|------------------------------------------------------------------------------|
D|------------------------------------------------------------------------------|
A|------------------------------------------------------------------------------|
D|-7--7--7--7x----7-7-7--7--7--7--7-7-7-7-8--8--8--8x----8-8-7--8--7--10--8--7--|            
Submit corrections


        Bite To Break Skin lessons Hard to play? Try these video lessons and learn fast Bite To Break Skin lessons
        
↑ Back to top | Tablatures and chords for acoustic guitar and electric guitar, ukulele, drums are parodies/interpretations of the original songs. You may use it for private study, scholarship, research or language learning purposes only