» » »

Semisonic - Fnt Tabs

Artists:  A B C D E F G H I J K L M N O P Q R S T U V W X Y Z # 

Fnt Tabs

(ver. 1) Click to play this song!
Semisonic
 Rating:
3.7/5 (6 votes)

 Fnt lessons Tabs too difficult? Try these video lessons and learn fast
 
                

but in chord form, so I have transcribed them to tab
to make it a little easier.

Intro Riff:

-|----------------------------------------------------------------------------|
-|----------------------------------------------------------------------------|
-|----------------------------------------------------------------------------|
-|---------7-7---5------------------------------------------------------------|
-|-0-0-0-0-----7---6br--------------------------------------------------------|
-|----------------------------------------------------------------------------|

Verse:                  Chorus:

    D9  G6  D9  G6          E     G     D    F#   Bmin  Bmin7    D  G  A

-|--5----5---5---5--|-------0-----3-----2-----2-----2-----2------x--x--0------|
-|--5----5---5---5--|-------0-----3-----3-----2-----3-----3------3--3--2------|
-|--7----7---7---7--|-------1-----0-----2-----3-----4-----2------2--0--2------|
-|--7----5---7---5--|-------2-----0-----0-----4-----4-----4------0--0--2------|
-|--5----5---5---5--|-------2-----x-----x-----4-----2-----2------x--x--0------|
-|------------------|-------0-----3-----x-----2-----x-----x------x--x--x------|


Bridge:

   C     G      D      A
-|-0-----3------2------0------------------------------------------------------|
-|-1-----3------3------2------------------------------------------------------|
-|-0-----0------2------2------------------------------------------------------|
-|-2-----0------0------2------------------------------------------------------|
-|-3-----x------x------0------------------------------------------------------|
-|-3-----3------x------x------------------------------------------------------|


Fascinating new thing
You delight me
And I know you're speaking of me
(riff twice)
(second verse, same as the first)
Fascinating new thing
Get beside me
I want you to love me
I'm surprised that you've never been told before
That you're lovely
and you're perfect
And that somebody wants you
(third and fourth verse, same as the second and first)
Fascinating new thing
The scene-makin'
Want a temporary savior
Fascinating new thing
Don't betray them
By becoming familiar
(all choruses just like the first!)
I'm surprised that you've never been told before
That you're lovely and you're perfect
And that somebody wants you
I'm surprised that you've never be told before
That you're priceless and you're precious
Even when you are not new
then play the riff in E by moving the whole pattern down one string.
            
Submit corrections


        Fnt lessons Hard to play? Try these video lessons and learn fast Fnt lessons
        
↑ Back to top | Tablatures and chords for acoustic guitar and electric guitar, ukulele, drums are parodies/interpretations of the original songs. You may use it for private study, scholarship, research or language learning purposes only