Home » S » Semisonic »

Semisonic - Chemistry Tabs

Artists:  A B C D E F G H I J K L M N O P Q R S T U V W X Y Z # 

Chemistry Tabs

(ver. 2) Click to play this song!
Semisonic
(Intro)
CHEMISTRY-Semisonic

 Guitar 1
|---------------------------------|
|-0-0-0-0-2-2-2-2-0-0-0-2-2-2-2-2-|
|-2-2-2-2-2-2-2-2-2-2-2-2-2-2-2-2-|
|---------------------------------| 4x
|---------------------------------|
|---------------------------------|


 Guitar 2
|-------------------------------------------------------------|
|-9--------7--------5------2h3p2------------------------------|
|----------------------------------4--------2--------2-2--2-2-|
|----9--9-----7--7-----7--------------2--2-----0--0--2-2--2-2-|
|----------------------------------------------------0-0--0-0-|
|-------------------------------------------------------------|
            
Submit corrections

↑ Back to top | Tablatures and chords for acoustic guitar and electric guitar, ukulele, drums are parodies/interpretations of the original songs. You may use it for private study, scholarship, research or language learning purposes only