Home » S » Selig »

Selig - Cows & Boys Tabs

Artists:  A B C D E F G H I J K L M N O P Q R S T U V W X Y Z # 

Cows & Boys Tabs

(ver. 2) Click to play this song!
Selig
(I've only got the instrumental one, so i got no lyrics.)

Intro/Riff:

------------------------------------------------------
------------------------------------------------------
------------------------------------------------------
----------3-2----------3----------3-2--2-3-2-3--------
---0--2-3-------0--2-3-----0--2-3--------------2-3-0--
------------------------------------------------------

------------------------------------------------------
-----------------------3~~~---------------------------
----------3-2----------3~~~---------------------------
---0--2-3-------0--2-3--------------------------------
------------------------------------------------------
------------------------------------------------------

That's it! Not much, but correct (i hope)

See you, Jann
            
Submit corrections

↑ Back to top | Tablatures and chords for acoustic guitar and electric guitar, ukulele, drums are parodies/interpretations of the original songs. You may use it for private study, scholarship, research or language learning purposes only