» » »

Selena Gomez - Sober Bass

Artists:  A B C D E F G H I J K L M N O P Q R S T U V W X Y Z # 

Sober Bass

(ver. 1) Click to play this song!
Selena Gomez
 Rating:
4.3/5 (19 votes)

 Sober lessons Tabs too difficult? Try these video lessons and learn fast
 
                G|-14-14-16-14-14-16/18-16--------------|
D|--------------------------------------|
A|--------------------------------------|
E|--------------------------------------|
 
G|--------------------------------------|
D|-14-14-16-14-14-14-16/18-13-14--------|
A|--------------------------------------|
E|--------------------------------------|
 
G|--------------------------------------|
D|-0-0-0-0-2-2-2-2-7-7-7-7-7-7-7-7------|
A|--------------------------------------|
E|--------------------------------------|
 
G|--------------------------------------|
D|-0-0-0-0-2-2-2-2-4-4-4-4-4-4-4-4------|
A|--------------------------------------|
E|--------------------------------------|
 
G|--------------------------------------|
D|-0-0-0-0-2-2-2-2----------------------|
A|-----------------0-0-0-0-0-0-0-0------|
E|--------------------------------------|
 
G|--------------------------------------|
D|-0-0-0-0-2-2-2-2-4-4-4-4-4-4-4-4------|
A|--------------------------------------|
E|--------------------------------------|

            
Submit corrections


        Sober lessons Hard to play? Try these video lessons and learn fast Sober lessons
        
↑ Back to top | Tablatures and chords for acoustic guitar and electric guitar, ukulele, drums are parodies/interpretations of the original songs. You may use it for private study, scholarship, research or language learning purposes only