» » »

Selena Gomez - Falling Down Bass

Artists:  A B C D E F G H I J K L M N O P Q R S T U V W X Y Z # 

Falling Down Bass

(ver. 1) Click to play this song!
Selena Gomez
 Rating:
4/5 (4 votes)
                This song is pretty easy,but you have to get the verses right.listen to the song 
and you will get it very quickly.please rate

Intro

G |---------------------------------------------|X2
D |---------------------------------------------|
A |-5-5-7/3-333-2345-5-7/3-333-234--------------|
E |---------------------------------------------|

Verses

G |---------------------------------------------|X3
D |---------------------------------------------|
A |-5-5-7/3-333-234-----------------------------|
E |---------------------------------------------|

G |---------------------------------------------|
D |---------------------------------------------|
A |-5-5-7/3-333---------------------------------|
E |---------------------------------------------|

G |---------------------------------------------|X4
D |---------------------------------------------|
A |-5-5-7/3-333-234-----------------------------|
E |---------------------------------------------|


Chorus

G |---------------------------------------------|X3
D |---------------------------------------------|
A |-55555555-22222222-33333333------------------|
E |---------------------------33333333----------|

G |---------------------------------------------|
D |---------------------------------------------|
A |-11111111-33333333---------------------------|
E |---------------------------------------------|

Post-chorus

G |---------------------------------------------|
D |---------------------------------------------|
A |-5-5-7/3-333-2345-5-7/3-333------------------|
E |---------------------------------------------| 

Verses

G |---------------------------------------------|X3
D |---------------------------------------------|
A |-5-5-7/3-333-234-----------------------------|
E |---------------------------------------------|

G |---------------------------------------------|
D |---------------------------------------------|
A |-5-5-7/3-333---------------------------------|
E |---------------------------------------------|

G |---------------------------------------------|X4
D |---------------------------------------------|
A |-5-5-7/3-333-234-----------------------------|
E |---------------------------------------------|

Chorus

G |---------------------------------------------|X3
D |---------------------------------------------|
A |-55555555-22222222-33333333------------------|
E |---------------------------33333333----------|

G |---------------------------------------------|
D |---------------------------------------------|
A |-11111111-33333333---------------------------|
E |---------------------------------------------|

Bridge (no bass till 2:21 and play it very low)

G |---------------------------------------------|X2
D |---------------------------------------------|
A |-55555555-22222222-33333333------------------|
E |---------------------------33333333----------|

Chorus

G |---------------------------------------------|X3
D |---------------------------------------------|
A |-55555555-22222222-33333333------------------|
E |---------------------------33333333----------|

G |---------------------------------------------|
D |---------------------------------------------|
A |-11111111-33333333---------------------------|
E |---------------------------------------------|

Outro

G |---------------------------------------------|
D |---------------------------------------------|
A |-5-5-7/3-333-234-----------------------------|
E |---------------------------------------------|

G |---------------------------------------------|
D |---------------------------------------------|
A |-5-5-7/3-333---------------------------------|
E |---------------------------------------------|
            
Submit corrections

↑ Back to top | Tablatures and chords for acoustic guitar and electric guitar, ukulele, drums are parodies/interpretations of the original songs. You may use it for private study, scholarship, research or language learning purposes only