Home » S » Selena »

Selena - Bidi Bidi Bom Bom Tabs

Artists:  A B C D E F G H I J K L M N O P Q R S T U V W X Y Z # 

Bidi Bidi Bom Bom Tabs

(ver. 2) Click to play this song!
Selena
(Bridge)                                   
E:|-------------------------------------------------------|
B:|-------------------------------------------------------|
G:|---13\10--10/12\10--10--10--10/14\10--10---7-8-7-------|
D:|------------------------------------------------10-----|
A:|-------------------------------------------------------|
E:|-------------------------------------------------------|

E:|-------------------------------------------------------|
B:|-------------------------------------------------------|
G:|-------10---0---h10---0---h10---0---h10----------------|
D:|-------------------------------------------------------|
A:|-------------------------------------------------------|
E:|-------------------------------------------------------|

E:|-------------------------------------------------------|
B:|---11~---11---11---12/15---15---15---15---15b16-16r15--|
G:|-------------------------------------------------------|
D:|-------------------------------------------------------|
A:|-------------------------------------------------------|
E:|-------------------------------------------------------|

E:|-------------------------------------------------------|
B:|---13~---13---(13neck)---h14---t1511p~-----------------|
G:|-------------------------------------------------------|
D:|-------------------------------------------------------|
A:|-------------------------------------------------------|
E:|-------------------------------------------------------|

E:|---5/10-11p10----10-13p10--11p10--10-13p10-------------|
B:|--------------11---------11----------------------------|
G:|-------------------------------------------------------|
D:|-------------------------------------------------------|
A:|-------------------------------------------------------|
E:|-------------------------------------------------------|

E:|---11p10--10-13p10-----11p10----10---------------------|
B:|-------11-------------------11----11----11-------------|
G:|-------------------------------------10---10\8-10hp8\7-|
D:|-------------------------------------------------------|
A:|-------------------------------------------------------|
E:|-------------------------------------------------------|

E:|------------------------8-h10-h11p10p8-10-8-11-10-8-10-|
B:|--------------9h10h11----------------------------------|
G:|-8--7---8/10-------------------------------------------|
D:|------10-----------------------------------------------|
A:|-------------------------------------------------------|
E:|-------------------------------------------------------|

(Neck)
E:|---13-13-13-13/15p13~-13-13-13-13-h1613p~--------------|
B:|-------------------------------------------------------|
G:|-------------------------------------------------------|
D:|-------------------------------------------------------|
A:|-------------------------------------------------------|
E:|-------------------------------------------------------|

E:|---13-13-13-13-13-13-t17p13~-13-13-13-13---13-13-13-13-|
B:|-------------------------------------------------------|
G:|-------------------------------------------------------|
D:|-------------------------------------------------------|
A:|-------------------------------------------------------|
E:|-------------------------------------------------------|
                 
E:|----13-13-13-13/--19b20~~~~\\\\\\\\\\------------------|
B:|-------------------------------------------------------|
G:|-------------------------------------------------------|
D:|-------------------------------------------------------|
A:|-------------------------------------------------------|
E:|-------------------------------------------------------|
            
Submit corrections

↑ Back to top | Tablatures and chords for acoustic guitar and electric guitar, ukulele, drums are parodies/interpretations of the original songs. You may use it for private study, scholarship, research or language learning purposes only