» » »

Sebadoh - License To Confuse Tabs

Artists:  A B C D E F G H I J K L M N O P Q R S T U V W X Y Z # 

License To Confuse Tabs

(ver. 1) Click to play this song!
Sebadoh
 Rating:
4.3/5 (15 votes)

 License To Confuse lessons Tabs too difficult? Try these video lessons and learn fast
 
                [Intro]
         1 e & a 2 e & a 3 e & a 4 e & a 1 e & a 2 e & a 3 e & a 4 e & a
eb|------------------------------------|-x-x----------------------------------|
Bb|------------------------------------|-x-x----------------------------------|
Gb|----------4--p2--p0-----------------|-x-x-4--p2--p0------------------------|
Db|------------------------------0---2-|-x-x---------------------0---2--------|
Ab|--------------------------2-------2-|-x-x-----------------2-------2--------|
Eb|----------------------3-----------0-|-x-x-------------3-----------0--------|

[Verse]
         1 e & a 2 e & a 3 e & a 4 e & a 1 e & a 2 e & a 3 e & a 4 e & a
eb|------x-x---------------------------|-x-x----------------------------------|
Bb|------x-x---------------------------|-x-x----------------------------------|
Gb|------x-x-4--p2--p0-----------------|-x-x-4--p2--p0------------------------|
Db|------x-x---------------------0---2-|-x-x---------------------0---2--------|
Ab|------x-x-----------------2-------2-|-x-x-----------------2-------2--------|
Eb|------x-x-------------3-----------0-|-x-x-------------3-----------0--------|

         1 e & a 2 e & a 3 e & a 4 e & a 1 e & a 2 e & a 3 e & a 4 e & a
eb|------x-x---------------------------|-x-x----------------------------------|
Bb|------x-x---------------------------|-x-x----------------------------------|
Gb|------x-x-4--p2--p0-----------------|-x-x-4--p2--p0------------------------|
Db|------x-x---------------------0---2-|-x-x---------------------0---2--------|
Ab|------x-x-----------------2-------2-|-x-x-----------------2-------2--------|
Eb|------x-x-------------3-----------0-|-x-x-------------3-----------0--------|

         1 e & a 2 e & a 3 e & a 4 e & a 1 e & a 2 e & a 3 e & a 4 e & a
eb|------x-x---------------------------|-x-x----------------------------------|
Bb|------x-x---------------------------|-x-x----------------------------------|
Gb|------x-x-4--p2--p0-----------------|-x-x-4--p2--p0------------------------|
Db|------x-x---------------------0---2-|-x-x---------------------0---2--------|
Ab|------x-x-----------------2-------2-|-x-x-----------------2-------2--------|
Eb|------x-x-------------3-----------0-|-x-x-------------3-----------0--------|

         1 e & a 2 e & a 3 e & a 4 e & a 1 e & a 2 e & a 3 e & a 4 e & a
eb|------x-x---------------------------|-x-x----------------------------------|
Bb|------x-x---------------------------|-x-x----------------------------------|
Gb|------x-x-4--p2--p0-----------------|-x-x-4--p2--p0------------------------|
Db|------x-x---------------------0---2-|-x-x---------------------0---2--------|
Ab|------x-x-----------------2-------2-|-x-x-----------------2-------2--------|
Eb|------x-x-------------3-----------0-|-x-x-------------3-----------0--------|


         1 e & a 2 e & a 3 e & a 4 e & a 1 e & a 2 e & a 3 e & a 4 e & a
eb|------x-x---------------------------|-x-x----------------------------------|
Bb|------x-x---------------------------|-x-x----------------------------------|
Gb|------x-x-4--p2--p0-----------------|-x-x-4--p2--p0------------------------|
Db|------x-x---------------------0---2-|-x-x---------------------0---2--------|
Ab|------x-x-----------------2-------2-|-x-x-----------------2-------2--------|
Eb|------x-x-------------3-----------0-|-x-x-------------3-----------0--------|

         1 e & a 2 e & a 3 e & a 4 e & a 1 e & a 2 e & a 3 e & a 4 e & a
eb|------x-x---------------------------|-x-x----------------------------------|
Bb|------x-x---------------------------|-x-x----------------------------------|
Gb|------x-x-4--p2--p0-----------------|-x-x-4--p2--p0------------------------|
Db|------x-x---------------------0---2-|-x-x---------------------0---2--------|
Ab|------x-x-----------------2-------2-|-x-x-----------------2-------2--------|
Eb|------x-x-------------3-----------0-|-x-x-------------3-----------0--------|

         1   &   2   &      
eb|------x-x--------------|
Bb|------x-x--------------|
Gb|------x-x-4--p2--p0----|
Db|------x-x--------------|
Ab|------x-x--------------|
Eb|------x-x--------------|

[Chorus 1]
         1   &   2   &   3   &   4   &   1   &   2   &   3   &   4   & 
eb|------------------------------------|--------------------------------------|
Bb|------------------------------------|--------------------------------------|
Gb|------------------------------------|--------------------------------------|
Db|------0---0---0---0---2---2---2---2-|-0---0---0---0---2---2---2---2--------|
Ab|------2---2---2---2---2---2---2---2-|-2---2---2---2---2---2---2---2--------|
Eb|------3---3---3---3---0---0---0---0-|-3---3---3---3---0---0---0---0--------|


         1   &   2   &   3   &   4   &   1   &   2   &   3   &   4   & 
eb|------------------------------------|--------------------------------------|
Bb|------------------------------------|--------------------------------------|
Gb|------------------------------------|--------------------------------------|
Db|------0---0---0---0---2---2---2---2-|-0---0---0---0---2---2---2---2--------|
Ab|------2---2---2---2---2---2---2---2-|-2---2---2---2---2---2---2---2--------|
Eb|------3---3---3---3---0---0---0---0-|-3---3---3---3---0---0---0---0--------|

[Verse 2]
         1 e & a 2 e & a 3 e & a 4 e & a 1 e & a 2 e & a 3 e & a 4 e & a
eb|------------------------------------|-x-x----------------------------------|
Bb|------------------------------------|-x-x----------------------------------|
Gb|----------4--p2--p0-----------------|-x-x-4--p2--p0------------------------|
Db|------------------------------0---2-|-x-x---------------------0---2--------|
Ab|--------------------------2-------2-|-x-x-----------------2-------2--------|
Eb|----------------------3-----------0-|-x-x-------------3-----------0--------|

         1 e & a 2 e & a 3 e & a 4 e & a 1 e & a 2 e & a 3 e & a 4 e & a
eb|------x-x---------------------------|-x-x----------------------------------|
Bb|------x-x---------------------------|-x-x----------------------------------|
Gb|------x-x-4--p2--p0-----------------|-x-x-4--p2--p0------------------------|
Db|------x-x---------------------0---2-|-x-x---------------------0---2--------|
Ab|------x-x-----------------2-------2-|-x-x-----------------2-------2--------|
Eb|------x-x-------------3-----------0-|-x-x-------------3-----------0--------|

         1 e & a 2 e & a 3 e & a 4 e & a 1 e & a 2 e & a 3 e & a 4 e & a
eb|------x-x---------------------------|-x-x----------------------------------|
Bb|------x-x---------------------------|-x-x----------------------------------|
Gb|------x-x-4--p2--p0-----------------|-x-x-4--p2--p0------------------------|
Db|------x-x---------------------0---2-|-x-x---------------------0---2--------|
Ab|------x-x-----------------2-------2-|-x-x-----------------2-------2--------|
Eb|------x-x-------------3-----------0-|-x-x-------------3-----------0--------|


         1 e & a 2 e & a 3 e & a 4 e & a 1 e & a 2 e & a 3 e & a 4 e & a
eb|------x-x---------------------------|-x-x----------------------------------|
Bb|------x-x---------------------------|-x-x----------------------------------|
Gb|------x-x-4--p2--p0-----------------|-x-x-4--p2--p0------------------------|
Db|------x-x---------------------0---2-|-x-x---------------------0---2--------|
Ab|------x-x-----------------2-------2-|-x-x-----------------2-------2--------|
Eb|------x-x-------------3-----------0-|-x-x-------------3-----------0--------|

         1 e & a 2 e & a 3 e & a 4 e & a 1 e & a 2 e & a 3 e & a 4 e & a
eb|------x-x---------------------------|-x-x----------------------------------|
Bb|------x-x---------------------------|-x-x----------------------------------|
Gb|------x-x-4--p2--p0-----------------|-x-x-4--p2--p0------------------------|
Db|------x-x---------------------0---2-|-x-x---------------------0---2--------|
Ab|------x-x-----------------2-------2-|-x-x-----------------2-------2--------|
Eb|------x-x-------------3-----------0-|-x-x-------------3-----------0--------|

         1   &   2   &      
eb|------x-x--------------|
Bb|------x-x--------------|
Gb|------x-x-4--p2--p0----|
Db|------x-x--------------|
Ab|------x-x--------------|
Eb|------x-x--------------|

[Chorus 2]
         1 e & a 2 e & a 3 e & a 4 e & a 1 e & a 2 e & a 3 e & a 4 e & a
eb|------------------------------------|--------------------------------------|
Bb|------------------------------------|--------------------------------------|
Gb|------------------------------------|--------------------------------------|
Db|------0---0---0---0---2---2---2---2-|-0---0---0---0---2---2---2---2--------|
Ab|------2---2---2---2---2---2---2---2-|-2---2---2---2---2---2---2---2--------|
Eb|------3---3---3---3---0---0---0---0-|-3---3---3---3---0---0---0---0--------|


         1 e & a 2 e & a 3 e & a 4 e & a 1 e & a 2 e & a 3 e & a 4 e & a
eb|------------------------------------|--------------------------------------|
Bb|------------------------------------|-------------------3-3----------------|
Gb|------------------------------------|-------------------------2--p0--------|
Db|------0---0---0---0---2---2---2---2-|-0---0---0---0---2--------------------|
Ab|------2---2---2---2---2---2---2---2-|-2---2---2---2---2--------------------|
Eb|------3---3---3---3---0---0---0---0-|-3---3---3---3---0--------------------|

[Alternate Verse]
         1 e & a 2 e & a 3 e & a 4 e & a 1 e & a 2 e & a 3 e & a 4 e & a
eb|------------------------------------|--------------------------------------|
Bb|------1---1---1-------3-3-3---------|-1---1---1-------3-3-3----------------|
Gb|------0---0---0---------------2--p0-|-0---0---0---------------2--p0--------|
Db|------2---2---2---2-----------------|-2---2---2---2------------------------|
Ab|------3---3---3---0-----------------|-3---3---3---0------------------------|
Eb|------------------------------------|--------------------------------------|

         1 e & a 2 e & a 3 e & a 4 e & a 1 e & a 2 e & a 3 e & a 4 e & a
eb|------------------------------------|--------------------------------------|
Bb|------1---1---1-------3-3-3---------|-1---1---1-----------4--p2--p0--------|
Gb|------0---0---0---------------2--p0-|-0---0---0----------------------------|
Db|------2---2---2---2-----------------|-2---2---2---2------------------------|
Ab|------3---3---3---0-----------------|-3---3---3---0------------------------|
Eb|------------------------------------|--------------------------------------|

         1 e & a 2 e & a 3 e & a 4 e & a 1 e & a 2 e & a 3 e & a 4 e & a
eb|------------------------------------|--------------------------------------|
Bb|----------------------x-x-----------|-----------------3-3-3----------------|
Gb|----------------------x-x-4--p2--p0-|-------------------------2--p0--------|
Db|--------------0---2---x-x-----------|---------0---2------------------------|
Ab|----------2-------2---x-x-----------|-----2-------2------------------------|
Eb|------3-----------0---x-x-----------|-3-----------0------------------------|

         1 e & a 2 e & a 3 e & a 4 e & a 5 e & a 6 e & a 7 e & a 8 e & a
eb|---------------------------------------------------------------------------|
Bb|------1---1---1-----------------------1---1---1----------------------------|
Gb|------0---0---0-----------------------0---0---0----------------------------|
Db|------2---2---2---2---2-------2---2-2-2---2---2---2---2-------2---2-2------|
Ab|------3---3---3---0---0-------0---0-0-3---3---3---0---0-------0---0-0------|
Eb|---------------------------------------------------------------------------|

         1 e & a 2 e & a 3 e & a 4 e & a 5 e & a 6 e & a 7 e & a 8 e & a
eb|---------------------------------------------------------------------------|
Bb|------1---1---1-----------------------1---1---1----------------------------|
Gb|------0---0---0-----------------------0---0---0----------------------------|
Db|------2---2---2---2---2-------2---2-2-2---2---2---2---2-------2---2-2------|
Ab|------3---3---3---0---0-------0---0-0-3---3---3---0---0-------0---0-0------|
Eb|---------------------------------------------------------------------------|

[Outro]
         1 e & a 2 e & a 3 e & a 4 e & a 1 e & a 2 e & a 3 e & a 4 e & a
eb|------------------------------------|--------------------------------------|
Bb|------------------------------------|--------------------------------------|
Gb|------7---7---7---7-7-7-7-7---7---7-|-7---7---7---7-7-7-7-7---7---7-7------|
Db|------x---x---x---x-x-x-x-x---x---x-|-x---x---x---x-x-x-x-x---x---x-x------|
Ab|------5---5---5---5-5-5-5-5---5---5-|-5---5---5---5-5-5-5-5---5---5-5------|
Eb|------7---7---7---7-7-7-7-7---7---7-|-7---7---7---7-7-7-7-7---7---7-7------|

         1 e & a 2 e & a 3 e & a 4 e & a 1 e & a 2 e & a 3 e & a 4 e & a
eb|------------------------------------|--------------------------------------|
Bb|------------------------------------|--------------------------------------|
Gb|------9---9---9---9-9-9-9-9---9---9-|-7---7---7---7-7-7-7-7---7---7-7------|
Db|------x---x---x---x-x-x-x-x---x---x-|-x---x---x---x-x-x-x-x---x---x-x------|
Ab|------7---7---7---7-7-7-7-7---7---7-|-5---5---5---5-5-5-5-5---5---5-5------|
Eb|------9---9---9---9-9-9-9-9---9---9-|-7---7---7---7-7-7-7-7---7---7-7------|

         1 e & a 2 e & a 3 e & a 4 e & a 1 e & a 2 e & a 3 e & a 4 e & a
eb|------------------------------------|--------------------------------------|
Bb|------------------------------------|--------------------------------------|
Gb|------9---9---9---9-9-9-9-9---9---9-|-0-------0-------0-------0------------|
Db|------x---x---x---x-x-x-x-x---x---x-|-0-------0-------0-------0------------|
Ab|------7---7---7---7-7-7-7-7---7---7-|-2-------2-------2-------2------------|
Eb|------9---9---9---9-9-9-9-9---9---9-|-3-------3-------3-------3------------|

         1 e & a 2 e & a 3 e & a 4 e & a 1 e & a 2 e & a 3 e & a 4 e & a
eb|------------------------------------|----------------(0)-----(0)-----------|
Bb|------------------------------------|----------------(0)-----(0)-----------|
Gb|------9---9---9---9---9---9---9---9-|-7---7---7---7---7---7---7---7-7------|
Db|------x---x---x---x---x---x---x---x-|-x---x---x---x---x---x---x---x-x------|
Ab|------7---7---7---7---7---7---7---7-|-5---5---5---5---5---5---5---5-5------|
Eb|------9---9---9---9---9---9---9---9-|-7---7---7---7---7---7---7---7-7------|

         1 e & a 2 e & a 3 e & a 4 e & a 1 e & a 2 e & a 3 e & a 4 e & a
eb|------------------------------------|--------------------------------------|
Bb|------------------------------------|-0-------0-------0-------0------------|
Gb|------9---9---9---9---9---9---9---9-|-0-------0-------0-------0------------|
Db|------x---x---x---x---x---x---x---x-|-0-------0-------0-------0------------|
Ab|------7---7---7---7---7---7---7---7-|-2-------2-------2-------2------------|
Eb|------9---9---9---9---9---9---9---9-|-3-------3-------3-------3------------|

         1 e & a 2 e & a 3 e & a 4 e & a 1 e & a 2 e & a 3 e & a 4 e & a
eb|------------------------------------|--------------------------------------|
Bb|------3---3---3---3---0---0---0---0-|-3---3---3---3---0---0---0---0--------|
Gb|------0---0---0---0---0---0---0---0-|-0---0---0---0---0---0---0---0--------|
Db|------0---0---0---0---0---0---0---0-|-0---0---0---0---0---0---0---0--------|
Ab|------2---2---2---2---2---2---2---2-|-2---2---2---2---2---2---2---2--------|
Eb|------3---3---3---3---3---3---3---3-|-3---3---3---3---3---3---3---3--------|

         1 e & a 2 e & a 3 e & a 4 e & a 5 e & a 6 e & a 7 e & a 8 e & a
eb|---------------------------------------------------------------------------|
Bb|------3--------------------------------------------------------------------|
Gb|------0--------------------------------------------------------------------|
Db|------0--------------------------------------------------------------------|
Ab|------2--------------------------------------------------------------------|
Eb|------3--------------------------------------------------------------------|

            
Submit corrections


        License To Confuse lessons Hard to play? Try these video lessons and learn fast License To Confuse lessons
        
↑ Back to top | Tablatures and chords for acoustic guitar and electric guitar, ukulele, drums are parodies/interpretations of the original songs. You may use it for private study, scholarship, research or language learning purposes only