» » »

Sebadoh - Magnet's Coil Chords

Artists:  A B C D E F G H I J K L M N O P Q R S T U V W X Y Z # 

Magnet's Coil Chords

(ver. 1) Click to play this song!
Sebadoh
 Rating:
4/5 (4 votes)
    Magnet's Coil lessons Tabs too difficult? Try these video lessons and learn fast
                Magnet's Coil -seBADoh-
By Lou Barlow

I'm not going to include the lyrics to this song because
they've been posted everywhere, ie:Nevada(OLGA).  Anyway
they're not hard to figure out.  This is just an
addition to the Bakesale version posted at OLGA.

8<------------------------------------------------------

INTRO:
------

  E G?     A  E G? A
e|---0--0------------0-0-0-0----0-0-0-0--|
B|----4--4--2----4------2---2------2---0-|
G|-----5--5-2----5--2----------2---------|
D|-2--------2--2-6-----------------------|
A|-2-----------2-6-----------------------|
E|-0-----------0-------------------------|

VERSE:
------
   E G?A E B# A
e|--------------|
B|---4-2--(4)-2-|
G|---5-2---4--2-|
D|-2-6-2-2-4--2-|
A|-2-6---2-2----|
E|-0-----0------|

CHORUS:
-------

E B# (see above)

Note: Some variations are played in both the verse and
chorus but these are represented in the intro.  So you
should be able to work it out.

Again, listen to the song, rebound single, for timings
and for the number of time each chord is strummed.
            
Submit corrections

↑ Back to top | Tablatures and chords for acoustic guitar and electric guitar, ukulele, drums are parodies/interpretations of the original songs. You may use it for private study, scholarship, research or language learning purposes only