» » »

Sebadoh - Careful Tabs

Artists:  A B C D E F G H I J K L M N O P Q R S T U V W X Y Z # 

Careful Tabs

(ver. 1) Click to play this song!
Sebadoh
 Rating:
1.9/5 (28 votes)

 Careful  lessons Tabs too difficult? Try these video lessons and learn fast
 
                Tuning: Half a step down. 

CAPO fret 5

INTRO/BRIDGE...

 Listen to record for strumming...

  Chord shapes         Solo Melody 

e|-0---0---0---0---|-----------------------------------------------------|
B|-0---0---0---0---|-----------------------------------------------------|
G|-4---5---2---5---|--------------------------9--9--7---7----------------|
D|-x---5---2---5---|---9~-7~---------9~-7~------------9----10------------|
A|-2---x---0---x---|--------------7--------------------------------------|
E|-----------------|---------10------------------------------------------|

 VERSE Chord shapes. Jason alternates between C and Cmaj7 inversions
  
   Em CM7  Am  CM7
e|-0---0---0---0------|
B|-0---0---1---0------|
G|-0---5---2---0------|
D|-2---5---2---2------|
A|-2---3---0---3------|
E|-0------------------|

            
Submit corrections


        Careful  lessons Hard to play? Try these video lessons and learn fast Careful  lessons
        
↑ Back to top | Tablatures and chords for acoustic guitar and electric guitar, ukulele, drums are parodies/interpretations of the original songs. You may use it for private study, scholarship, research or language learning purposes only