» » »

Seaway - Airhead Tabs

Artists:  A B C D E F G H I J K L M N O P Q R S T U V W X Y Z # 

Airhead Tabs

(ver. 1) Click to play this song!
Seaway
 Rating:
4.3/5 (27 votes)

 Airhead lessons Tabs too difficult? Try these video lessons and learn fast
 
                [Intro]

Guitar 2 (comes in before guitar 1)
e|-8-8-8-8-8-8-8-8-----------------|
B|-----------------8-8-8-----------|
G|-----------------------8-8-8-8-8-|
D|-6-6-6-6-6-6-6-6-6-6-6-6-6-6-6-6-|
A|---------------------------------|    
E|------------------------------4x-|

Guitar 1
e|------------------2x-|-------------------------4x-|
B|---------------------|----------------------------|
G|----------------6~---|-------------6-6-6-6-6------|
D|-6~-------3~----6~---|-6-----3-3-3-6-6-6-6-6------|
A|-6~-------3~----4~---|-6--x8-3-3-3-4-4-4-4-4------|
D|-6~-------3~---------|-6-----3-3-3----------------|

Guitar 2 (full band comes in)
e|----------------------------------------13-13-13-------11---11---11---11---11\9-8-------------|
B|-9--x8-6-6-6-4--x12-8-8-8-6--x5-/13--x7-11-11-11-9--x5----9----9----9----9--------11~~--9/13~-|
G|-8-----8-8-8-8------8-8-8-8-------------------------------------------------------------------|
D|----------------------------------------------------------------------------------------------|
A|----------------------------------------------------------------------------------------------|
E|----------------------------------------------------------------------------------------------|

Verse 1:

Guitar 1
e|-------------------|----------------3x-|----------------3x-|-------------------|
B|-------------------|-------------------|-------------------|-------------------|
G|-------------------|-------------------|-------------------|-------------6~----|
D|-6--x8-3-3-3-------|-6--x8-------------|-------------6--x5-|-------------6~----|
A|-------------4--x5-|-------------4--x5-|-6--x8-3-3-3-4-----|-6--x8-6--x8-4~----|
D|-------------------|-------3-3-3-------|-6-----3-3-3-------|-6-----5-----------|
   *     * * * *       *     * * * *       *     * * *         *     *  
Guitar 2
e|---------------------------------------|-----------------------|-----------------------|
B|---------------------------------------|-9-9---9-9---8-9---9-9-|-------------8---------|
G|---------------------------------------|-8-8---8-8---8-8---8-8-|---8~------8---8~---8~-|
D|---------------------------------------|-----------------------|-6-------6-------------|
A|---------------------------------------|-----------------------|-----------------------|
D|---------------------------------------|--------------------2x-|-----------------------|

Chorus:

Guitar 1
e|----------------3x-|-----------------------|-----------------------------------2x-|----|
B|-------------------|-----------------------|--------------------------------------|----|
G|-------------6-----|-----------------------|-1-1-1-1-1-1---1~-1-------------------|-6~-|
D|-6-----3-3-3-6--x5-|-6-----3-3-3-----------|-3-3-3-3-3-3---3~-3--x6-6-------5-----|-6~-|
A|-6--x8-3-3-3-4-----|-6--x8-3-3-3-4-4-1-4-1-|-1-1-1-1-1-1---1~-1-----6--x6---6--x8-|-4~-|
D|-6-----3-3-3-------|-6-----3-3-3-----------|------------------------6-------5-----|----|

Guitar 2
e|----------------3x-|------------------------------------------|
B|-------------------|-----------------------9/11-11-11-11-11~--|
G|-8-----5-5-5-6-----|-8-----5-5-5------------------------------|
D|-6-----3-3-3-6--x5-|-6-----3-3-3-6-6-3-6-3--------------------|
A|-6--x8-3-3-3-4-----|-6--x8-3-3-3-4-4-1-4-1--------------------|
D|-6-----3-3-3-------|-6-----3-3-3------------------------------|

e|----------8--x6-9~----------8-x6------8--x8----------|-8~-|
B|-9~-9--x8----------8~-8--x6-----9--x8-------8~-8--x6-|----|
G|-----------------------------------------------------|----|
D|-----------------------------------------------------|----|
A|-----------------------------------------------------|----|
D|--------------------------------------------------2x-|----|

Guitar 1
e|----------------3x-|--------------------------|
B|-------------------|--------------------------|
G|-------------6-----|-------------6-6--(pause)-|
D|-6-----3-3-3-6--x5-|-6-----3-3-3-6-6----------|
A|-6--x8-3-3-3-4-----|-6--x8-3-3-3-4-4----------|
D|-6-----3-3-3-------|-6-----3-3-3--------------|

Guitar 2
e|----------------3x-|------------------------------|
B|-------------------|------------------------------|
G|-8-----5-5-5-6-----|-8-----5-5-5------------------|
D|-6-----3-3-3-6--x5-|-6-----3-3-3-\\\--------------|
A|-6--x8-3-3-3-4-----|-6--x8-3-3-3-\\\-(pickscr*pe)-|
D|-6-----3-3-3-------|-6-----3-3-3-\\\--------------|

Guitar 1
e|-------------------2x------------------------|
B|---------------------------------------------|
G|-------------6-6-6-6-6-----------------6-----|
D|-6-----3-3-3-6-6-6-6-6-3-3-3-3-1-1-1-1-6--x8-|
A|-6--x8-3-3-3-4-4-4-4-4-3-3-3-3-1-1-1-1-4-----|
D|-6-----3-3-3-----------3-3-3-3-1-1-1-1-------|

Solo/Bridge:

Guitar 1
e|----------------3x-|-----------------------------|
B|-------------------|-----------------------------|
G|-------------6-----|-------------6-6-6-6---------|
D|-6-----3-3-3-6--x5-|-6-----3-3-3-6-6-6-6-6-3-6-3-|
A|-6--x8-3-3-3-4-----|-6--x8-3-3-3-4-4-4-4-4-1-4-1-|
D|-6-----3-3-3-------|-6-----3-3-3-----------------|

Guitar 2
e|-----------------------------------6---------------------|
B|-9---8---9~--9-8-6\4-6~-4~-----------4-------------------|
G|---8---8---------------------1-1~------5-6---------------|
D|---------------------------3-----------------3/5-6~------|
A|-------------------------------------------6-------------|
D|----------------------------------------------------20~\-|

Guitar 1
e|---------------------------------2x-|----|
B|------------------------------------|----|
G|-1-1-1-1-1-1-1-1~-1-----------------|-6~-|
D|-3-3-3-3-3-3-3-3~-3--x6-6-----5-----|-6~-|
A|-1-1-1-1-1-1-1-1~-1-----6--x8-6--x8-|-4~-|
D|------------------------6-----5-----|----|

Guitar 2
e|-----------------------------8--x6-9~----------8-x6------8--x8----------|-8~-|
B|-9/11-11-11-11-11~--9~-9--x8----------8~-8--x6-----9--x8-------8~-8--x6-|----|
G|------------------------------------------------------------------------|----|
D|------------------------------------------------------------------------|----|
A|------------------------------------------------------------------------|----|
D|------------------------------------------------------------------------|----|

Break:

Guitar 1
e|----------------3x-|-----------------------------|
B|-------------------|-----------------------------|
G|-------------------|-------1/8-8~----------------|
D|-------------6-----|-----------8~----------------|
A|-6--x8-3-3-3-4--x5-|-6--x8-----------------------|
D|-6-----3-3-3-------|-6---------------------------|
   *     *     *       *
Guitar 2
e|-------------------------------------------------|
B|-------------------------------------------------|
G|-------------------------------------------------|
D|-------------------6~-6--------------------------|
A|-------------------6~-6--------------------------|
D|-------------------6~-6--------------------------|
                     ^2:47
Final Chorus:

Guitar 1, 2x
e|----------------3x-|-----------------------|
B|-------------------|-----------------------|
G|-------------6-----|-----------------6-----|
D|-6-----3-3-3-6--x5-|-3-3-3-3-1-1-1-1-6--x8-|
A|-6--x8-3-3-3-4-----|-3-3-3-3-1-1-1-1-4-----|
D|-6-----3-3-3-------|-3-3-3-3-1-1-1-1-------|

Guitar 2                                                            Give this note vibrato V
e|----------------3x-|-11~~---|-12~-13~----|--------------------------------------------------------|
B|-------------------|-14b16~-|-15b~16b~---|-8~--8b9~-b9~-b9r8-6\4-6~-4~\---------------------------|
G|-8-----5-5-5-6-----|--------|------------|------------------------------/5~-5~-5p3-1~-/5-8-5\3\1~-|
D|-6-----3-3-3-6--x5-|--------|------------|--------------------------------------------------------|
A|-6--x8-3-3-3-4-----|--------|------------|--------------------------------------------------------|
D|-6-----3-3-3-------|-----6x-|------------|--------------------------------------------------------|

e|----------------3x-|---------------------------------------|
B|-------------------|-----------------------9~~~~~~---------|
G|-(1~)--5-5-5-6-----|-5-5-5-5-3-3-3-3-6---------------------|
D|-------3-3-3-6--x5-|-3-3-3-3-1-1-1-1-6--x8-----------------|
A|-------3-3-3-4-----|-3-3-3-3-1-1-1-1-4---------------------|
D|-------3-3-3-------|-3-3-3-3-1-1-1-1-----------------------|            
Submit corrections


        Airhead lessons Hard to play? Try these video lessons and learn fast Airhead lessons
        
↑ Back to top | Tablatures and chords for acoustic guitar and electric guitar, ukulele, drums are parodies/interpretations of the original songs. You may use it for private study, scholarship, research or language learning purposes only