Home » S » Seaway »

Seaway - 40 Over Tabs

Artists:  A B C D E F G H I J K L M N O P Q R S T U V W X Y Z # 

40 Over Tabs

(ver. 1) Click to play this song!
Seaway
[Intro (guitar 1 only)]
d|-------------------------------------------------------------------------------------------------------2x-|
A|----------------------------------------------3p0--------------------------------------------------0~-----|
F|-------------------0-------------0------------------0-------------------0-------------0-----------------0-|
C|------0------------------------4---4----2---2--------------0------------------------4---4----2---2--------|
G|----2---2----2---2---2---2-3/5-------3~---3-------3------2---2----2---2---2---2-3/5-------3~---3------3---|
D|-3~-------0~---0-------0------------------------------3~-------0~---0-------0-----------------------------|
 
d|----------------------------------------------------------|
A|------------------------------------------------3p0-------|
F|---------------------0-------------0------------------0---|
C|------0--------------------------4---4----2---2-----------|
G|----2---2------2---2---2---2-3/5-------3~---3-------3-----|
D|-3~-------0~-----0-------0--------------------------------|
 
[Prechorus]
 
Guitar 1
d|----------------------------------------------------------------------------------------------------|
A|-0~~~~~~~~~~~-1~-0~----------------------------0~~~~~~~~~~~-5~-3~-0~--------------------------------|
F|-------2~~~~~-------0~--------0-------------0~-------2~~~~~-5~-4~-0~----------0~----------0~-----0~-|
C|---------------------------------------4~----------------------------------------2-----------4------|
G|---------------------------3~---3-3/5~----5------------------------------3~-3------3~-3/5------5----|
D|----------------------------------------------------------------------------------------------------|
 
d|-------------------------------------------------------------------2x-|
A|-0~------------------------------------0~-----------------------------|
F|--------------------0~-----------0~----------------------------5------|
C|-----0-----------------------0~-------------5-----2------4-----5--x10-|
G|-------2--------2---------------------------5--x6-2--x10-5--x6-3------|
D|---------0~---0---0-------------------------3-----0------2------------|
 
d|-----------------------------------------------------------------------------------|
A|---------------------------------------0~------------------------------------------|
F|--------------------0~-----------0~-------------------------------5~-5~-5~-5-5-5-5-|
C|-----0-----------------------0~-------------5-----2------4~-4~-4~-5~-5~-5~-5-5-5-5-|
G|-------2--------2---------------------------5--x6-2--x10-5~-5~-5~-3~-3~-3~-3-3-3-3-|
D|---------0~---0---0-------------------------3-----0------2~-2~-2~------------------|
 
Guitar 2 (comes in at 00:47)
d|-----------------------------------2x-|-------------------------------------------|
A|--------------------------------------|-------------------------------------------|
F|-7-----4------4-----7-----------------|-7-----4------7~-7~-7~-7~-7~-7~-7-7-7-7----|
C|----x6----x10----x6----x10---(pause)--|----x6----x10------------------------------|
G|-5-----2------2-----7-----------------|-5-----2------5~-5~-5~-7~-7~-7~-7-7-7-7----|
D|--------------------------------------|-------------------------------------------|
 
[Chorus]
 
Guitar 1
d|-------------------2x-|-----------------------------------------------------------|
A|----------------------|----------------------0---------------------------0~-------|
F|---------------4------|-7-7-7-7-4------5~-4~-2------7-7-7-7-4------5~-4~-2~-------|
C|-5-------7~-5~-5--x24-|-5-5-5-5-2------5~-5~-2--x24-5-5-5-5-2------5~-5~-2~-------|
G|-5--x24--7~-5~-3------|-5-5-5-5-2--x24-3~-2~-0------5-5-5-5-2--x24-3~-2~-0~-------|
D|-3-------5~-3~--------|-3-3-3-3-0-------------------3-3-3-3-0---------------------|
 
Guitar 2
d|-------------------2x-|------14h15-------------------15~-14~------14h15-----------|
A|----------------------|------------------------15~-15-----------------------------|
F|-7-------9~-4~-9------|-14h16-----14\12~---------------------14h16-----14\12~-----|
C|----x24-----------x24-|-----------------------------------------------------------|
G|-5-------7~-2~-7------|-----------------------------------------------------------|
D|----------------------|-----------------------------------------------------------|
 
d|--------15--14~-------------------------------15~---14--------------------|
A|------15--15------15--14h15-------------/15~------15--15----15------------|
F|-/14~---------------16-----14\12~-----------------------16~---14~-12~-----|
C|--------------------------------------------------------------------------|
G|--------------------------------------------------------------------------|
D|--------------------------------------------------------------------------|
 
[Bridge]
 
Guitar 1
d|------4x-|------4x-|------4x-|------8x-|------4x-|-----------------|
A|---------|---------|---------|---------|---------|-----------------|
F|---------|---------|---------|---------|---------|---------0~------|
C|---5---5-|---9---9-|---4---4-|---5---5-|---9---9-|---4---4---------|
G|-3---3---|-7---7---|-5---5---|-3---3---|-7---7---|-5---5-----------|
D|---------|---------|---------|---------|---------|-----------------|
 
d|------8x-|------4x-|------3x-|---------------|
A|---------|---------|---------|---------------|
F|---------|---------|---------|-----0~-4------|
C|---5---5-|---9---9-|---4---4-|---4----5--x16-|
G|-3---3---|-7---7---|-5---5---|-5------3------|
D|---------|---------|---------|---------------|
 
Guitar 2 (2:20)
d|-19~-------17~--15~--14~------19~---------------------15-15-14~----------15-15-14~----19~-|
A|-------------------------------------15~---15-15-15-15-----------15-15-15-----------------|
F|-16~-------14~--12~--11~------16~---------------------------------------------------------|
C|-------------------------------------12~--------------------------------------------------|
G|------------------------------------------------------------------------------------------|
D|------------------------------------------------------------------------------------------|
 
[Prechorus (guitar 1 only)]
d|------------------------|
A|------------------------|
F|---------------------0~-|
C|------0-----------------|
G|----2---2------2--------|
D|-3~-------0~-----0~-----|
 
[Final Chorus]
 
Guitar 1
d|-------------------2x-|--------------------------3x-|-----------------------------------|
A|----------------------|----------------------0------|----------------------0------------|
F|---------------4------|-7-7-7-7-4------5~-4~-2------|-7-7-7-7-4------5~-4~-2------7-----|
C|-5-------7~-5~-5--x24-|-5-5-5-5-2------5~-5~-2--x24-|-5-5-5-5-2------5~-5~-2--x16-7--x8-|
G|-5--x24--7~-5~-3------|-5-5-5-5-2--x24-3~-2~-0------|-5-5-5-5-2--x24-3~-2~-0------5-----|
D|-3-------5~-3~--------|-3-3-3-3-0-------------------|-3-3-3-3-0-------------------------|
 
Guitar 2
d|-------------------2x-|------14h15-------------------15~-14~------14h15-----------|
A|----------------------|------------------------15~-15-----------------------------|
F|-7-------9~-4~-9------|-14h16-----14\12~---------------------14h16-----14\12~-----|
C|----x24-----------x24-|-----------------------------------------------------------|
G|-5-------7~-2~-7------|-----------------------------------------------------------|
D|----------------------|-----------------------------------------------------------|
 
d|--------15--14~-------------------------------15~---14--------------------|
A|------15--15------15--14h15-------------/15~------15--15----15------------|
F|-/14~---------------16-----14\12~-----------------------16~---14~-12~-----|
C|--------------------------------------------------------------------------|
G|--------------------------------------------------------------------------|
D|--------------------------------------------------------------------------|
 
[Outro (guitar 1 only)]
d|-----------------------------------------------------------------------------------------------|
A|----------------------------------------------3p0----------------------------------------------|
F|-------------------0-------------0------------------0---------------------0-------------0------|
C|------0------------------------4---4----2---2--------------0--------------------------4---4----|
G|----2---2----2---2---2---2-3/5-------3~---3-------3------2---2------2---2---2---2-3/5-------3~-|
D|-3~-------0~---0-------0------------------------------3~-------0~-----0-------0----------------|
            
Submit corrections

↑ Back to top | Tablatures and chords for acoustic guitar and electric guitar, ukulele, drums are parodies/interpretations of the original songs. You may use it for private study, scholarship, research or language learning purposes only