Home » S » Search »

Search - Gadis Misteri Tabs

Artists:  A B C D E F G H I J K L M N O P Q R S T U V W X Y Z # 

Gadis Misteri Tabs

(ver. 2) Click to play this song!
Search
[Intro]
   Asus            F                       Asus
e|--------------------------------------------------------|
B|----------------------------------------------3-2~------|
G|--------------------------------------------------------|
D|----7-9-9^^r-7--\3~----------7-9-9^^r-7--\2~------------|
A|--7-----------------------7-----------------------------|
E|--------------------------------------------------------|

                   F                               D#
e|--------------------------------------------------------------------|
B|-------------------------------------------------8~---10-10^^r-8~---|
G|--------------------------------------------------------------------|
D|----7-9-9^^r-7--\3~--3/5-3~----------7-9-9^^r-7---------------------|
A|--7--------------------------------7--------------------------------|
E|--------------------------------------------------------------------|

          Asus
e|------------------------------|
B|------------------------------|
G|--9/10--6~--6/7--6~-----------|
D|------------------------------|
A|------------------------------|
E|------------------------------|

Asus
Lama aku menanti...

[Interlude]
   Asus            F                       Asus
e|--------------------------------------------------|
B|--------------------------------------------------|
G|-----------------------------------------9~-------|
D|----7-9-9^^r-7--\3~----------7-9-9^^r-7-----------|
A|--7------------------------7----------------------|
E|--------------------------------------------------|

Asus
Lama aku mencari...

[Fill 1]
Bm              C#m
Berbagai bentuk dan rupa...

e|------------------------|
B|--9h10-9----------------|
G|---------11----9--------|
D|------------11---9~-----|
A|------------------------|
E|------------------------|

[Fill 2]
Bm           C#m
Bermain diruang mata...

e|------------------------|
B|--9h10-9----------------|
G|---------11----9-7~-----|
D|------------11----------|
A|------------------------|
E|------------------------|

[Solo]
C#m  A  G#m  G#m  F#m  A  E
    Bm         C#m                   Bm          C#m
e|--------------------------------------------------------|
B|--/15~---14^-14~----------12----14-15~--15^^r--14~------|
G|----------------------/11----11-------------------------|
D|--------------------------------------------------------|
A|--------------------------------------------------------|
E|--------------------------------------------------------|

                                  A                               D
e|---------------------------------------------7-----------7------------|
B|-------14h17p14--------14h17p14----------------10p7--------10p7-------|
G|--16^^------------16^^----------14~------9^^---------9^^--------7~----|
D|----------------------------------------------------------------------|
A|----------------------------------------------------------------------|
E|----------------------------------------------------------------------|

    F#5  G#5  A5   D5     C#5  B5   E5     E5       G#5     B5      E5
e|--X----X----X----X------X----X----X---------------------------------------|
B|--X----X----X----X------X----X----X---------------------------------------|
G|--X----X----X----7------6----4----9-------------------------------9-9-9---|
D|--4----6----7----7------6----4----9---------------6-6-6---9-9-9-----------|
A|--4----6----7----5------4----2----7-------7-7-7---------------------------|
E|--2----4----5----X------X----X----X---------------------------------------|
A               D
Bukalah jendela asmara...

[End]
     A                                    D
e|---------------------------------------------------------------------------|
B|--/10~--14--12h14p12--10h12p10--9h10p9--7~-----/15~---14h15p14--12h14p12---|
G|---------------------------------------------------------------------------|
D|---------------------------------------------------------------------------|
A|---------------------------------------------------------------------------|
E|---------------------------------------------------------------------------|

              E                    A
e|------------------------------------------------|
B|--10h12p10--9~-----/17-15-14-12--14~------------|
G|------------------------------------------------|
D|------------------------------------------------|
A|------------------------------------------------|
E|------------------------------------------------|            
Submit corrections

↑ Back to top | Tablatures and chords for acoustic guitar and electric guitar, ukulele, drums are parodies/interpretations of the original songs. You may use it for private study, scholarship, research or language learning purposes only