Home » S » Search »

Search - Fantasia Bulan Madu Tabs

Artists:  A B C D E F G H I J K L M N O P Q R S T U V W X Y Z # 

Fantasia Bulan Madu Tabs

(ver. 2) Click to play this song!
Search
SEARCH - Fantasia Bulan Madu (Solo)

This tab is more suitable for electric guitar.


Key:

^  - bend
^^ - full bend
h  - hammer on
p  - pull off
r  - release bend
/  - slide down
\  - slide up
~  - vibrato
() - finger tap



F#m      Bm  C#        F#m
Gelap gelita punah asmara...



               Bm          E                 F#m
e|---------------------------------------------------------------|
B|-----------------------------------5/7-------------------------|
G|----------4/6-4------2p1-2p1-------------9p7-6---6---6h7-6-----|
D|----4-6-7--------------------4-2-------------------------------|
A|--4------------------------------------------------------------|
E|---------------------------------------------------------------|



                Bm        G#                   C#
e|-----------------------------------------------------|
B|-----------------------------------------------------|
G|----------7/9-7---------------------------4/6-6------|
D|----4-6-7------------9-9/10\6----/6-4-3-3------------|
A|--4--------------------------------------------------|
E|-----------------------------------------------------|



                Bm          C#                    F#m
e|---------------------------------------------------------------|
B|----7-5---3p2-3p2----------------------------5-----------------|
G|--6---------------4-4--------------------4-6---7-6----6/7-6----|
D|------------------------/4-3-----3-4-6-7-----------------------|
A|---------------------------------------------------------------|
E|---------------------------------------------------------------|



                           Bm
e|---------------7-9-10-12-14-12-10-12-10-9----|
B|--------7-8-10-------------------------------|
G|--6-7-9--------------------------------------|
D|---------------------------------------------|
A|---------------------------------------------|
E|---------------------------------------------|



     C#
e|--/14--12h14p12--10h12p10--9h10p9--7h9p7--5h7p5--4h5p4--2h4p2--|
B|---------------------------------------------------------------|
G|---------------------------------------------------------------|
D|---------------------------------------------------------------|
A|---------------------------------------------------------------|
E|---------------------------------------------------------------|



     F#m
e|-------------------14---------------------------------------------|
B|--7-5-7^r-----12^^----12r-10-12---12p10---------------------------|
G|----------------------------------------11---11p9-----------------|
D|--------------------------------------------------11---11p9-7-9---|
A|------------------------------------------------------------------|
E|------------------------------------------------------------------|



                   F#m
e|-------------------------------------------------------------7-10p7------|
B|-----------------------------------------------7-10p7---7-10--------10---|
G|-----------------------------------7-9p7---7-9--------9------------------|
D|--9p7------------------7-9p7---7-9-------9-------------------------------|
A|------9p7-9-------/7-9-------9-------------------------------------------|
E|-------------------------------------------------------------------------|



         Bm
e|--7-----------------|
B|----10/12~----------|
G|--------------------|
D|--------------------|
A|--------------------|
E|--------------------|


Bm                E
Bulan madu diawan biru...




Guitar tabs by rizalwahap
            
Submit corrections

↑ Back to top | Tablatures and chords for acoustic guitar and electric guitar, ukulele, drums are parodies/interpretations of the original songs. You may use it for private study, scholarship, research or language learning purposes only