Home » S » Seahaven »

Seahaven - Wild West Selfishness Bass

Artists:  A B C D E F G H I J K L M N O P Q R S T U V W X Y Z # 

Wild West Selfishness Bass

(ver. 1) Click to play this song!
Seahaven
 Rating:
4.4/5 (11 votes)
                (Tuning: Drop D)
 
[Intro]
 
(Rest)
 
[Verse 1]
 
G|------------------------------------------------------------------|
D|------------------------------------------------------------------|
A|-9~--------------8~--------------7~--------------------7----------|
D|------------------------------------------------------------------|
 
G|------------------------------------------------------------------|
D|------------------------------------------------------------------|
A|-9~--------------8~--------------7~--------------------7----------|
D|------------------------------------------------------------------|
 
G|------------------------------------------------------------------|
D|------------------------------------------------------------------|
A|-9~--------------8~--------------7~--------------------7----------|
D|------------------------------------------------------------------|
 
G|------------------------------------------------------------------|
D|------------------------------------------------------------------|
A|-9~--------------8~--------------7~--------------------7----------|
D|------------------------------------------------------------------|
 
[Interlude]
 
G|------------------------------------------------------------------|
D|------------------------------------------------------------------|
A|-9-9-9-9-9-9-9-9-8-8-8-8-8-8-8-8-7-7-7-7-7-7~----------7-7-7-7-7--|
D|------------------------------------------------------------------|
 
G|------------------------------------------------------------------|
D|------------------------------------------------------------------|
A|-9-9-9-9-9-9-9-9-8-8-8-8-8-8-8-8-7-7-7-7-7-7~----------7-7-7-7-7--|
D|------------------------------------------------------------------|
 
[Verse 2]
 
G|------------------------------------------------------------------|
D|------------------------------------------------------------------|
A|-9-9-9-9-9-9-9-9-8-8-8-8-8-8-8-8-7-7-7-7-7-7~----------7-7-7-7-7--|
D|------------------------------------------------------------------|
 
G|------------------------------------------------------------------|
D|------------------------------------------------------------------|
A|-9-9-9-9-9-9-9-9-8-8-8-8-8-8-8-8-7-7-7-7-7-7~----------7-7-7-7-7--|
D|------------------------------------------------------------------|
 
G|------------------------------------------------------------------|
D|------------------------------------------------------------------|
A|-9-9-9-9-9-9-9-9-8-8-8-8-8-8-8-8-7-7-7-7-7-7~----------7-7-7-7-7--|
D|------------------------------------------------------------------|
 
G|------------------------------------------------------------------|
D|------------------------------------------------------------------|
A|-9-9-9-9-9-9-9-9-8-8-8-8-8-8-8-8-7-7-7-7-7-7~----------7-7-7-7-7--|
D|------------------------------------------------------------------|
 
[Chorus]
 
G|------------------------------------------------------------------|
D|------------------------------------------------------------------|
A|------------------------------------------------------------------|
D|-4~--------------3~--------------2~-------------------------------|
 
G|------------------------------------------------------------------|
D|------------------------------------------------------------------|
A|------------------------------------------------------------------|
D|-4~--------------3~--------------2~-------------------------------|
 
G|------------------------------------------------------------------|
D|------------------------------------------------------------------|
A|------------------------------------------------------------------|
D|-4~--------------3~--------------2~-------------------------------|
 
G|------------------------------------------------------------------|
D|------------------------------------------------------------------|
A|------------------------------------------------------------------|
D|-4~--------------3~--------------2~-------------------------------|
 
(Rest for a moment)
 
[Verse 3]
 
G|------------------------------------------------------------------|
D|------------------------------------------------------------------|
A|-9-9-9-9-9-9-9-9-8-8-8-8-8-8-8-8-7-7-7-7-7-7~----------7-7-7-7-7--|
D|------------------------------------------------------------------|
 
G|------------------------------------------------------------------|
D|------------------------------------------------------------------|
A|-9-9-9-9-9-9-9-9-8-8-8-8-8-8-8-8-7-7-7-7-7-7~----------7-7-7-7-7--|
D|------------------------------------------------------------------|
 
G|------------------------------------------------------------------|
D|------------------------------------------------------------------|
A|-9-9-9-9-9-9-9-9-8-8-8-8-8-8-8-8-7-7-7-7-7-7~----------7-7-7-7-7--|
D|------------------------------------------------------------------|
 
G|------------------------------------------------------------------|
D|------------------------------------------------------------------|
A|-9-9-9-9-9-9-9-9-8-8-8-8-8-8-8-8-7-7-7-7-7-7~----------7-7-7-7-7--|
D|------------------------------------------------------------------|
 
[Chorus]
 
G|------------------------------------------------------------------|
D|------------------------------------------------------------------|
A|------------------------------------------------------------------|
D|-4~--------------3~--------------2-2-2-2-2-2-2-2-2-2-2-2-2-2-2-2--|
 
G|------------------------------------------------------------------|
D|------------------------------------------------------------------|
A|------------------------------------------------------------------|
D|-4~--------------3~--------------2-2-2-2-2-2-2-2-2-2-2-2-2-2-2-2--|
 
G|------------------------------------------------------------------|
D|------------------------------------------------------------------|
A|------------------------------------------------------------------|
D|-4~--------------3~--------------2-2-2-2-2-2-2-2-2-2-2-2-2-2-2-2--|
 
G|------------------------------------------------------------------|
D|------------------------------------------------------------------|
A|------------------------------------------------------------------|
D|-4~--------------3~--------------2-2-2-2-2-2-2-2-2-2-2-2-2-2-2-2--|
 
(Pause)
 
[Bridge]
 
G|------------------------------------------------------------------|
D|------------------------------------------------------------------|
A|------------------------------------------------------------------|
D|-4-4-4-4-4-4-4-4-3-3-3-3-3-3-3-3-2-2-2-2-2-2-2-2-2-2-2-2-2-2-2-2--|
 
G|------------------------------------------------------------------|
D|------------------------------------------------------------------|
A|------------------------------------------------------------------|
D|-4-4-4-4-4-4-4-4-3-3-3-3-3-3-3-3-2-2-2-2-2-2-2-2-2-2-2-2-2-2-2-2--|
 
G|------------------------------------------------------------------|
D|------------------------------------------------------------------|
A|------------------------------------------------------------------|
D|-4-4-4-4-4-4-4-4-3-3-3-3-3-3-3-3x---------------------------------|
 
[Solo]
 
G|------------------------------------------------------------------|
D|------------------------------------------------------------------|
A|------------------------------------------------------------------|
D|-4-4-4-4-4-4-4-4-3-3-3-3-3-3-3-3-2-2-2-2-2-2-2-2-2-2-2-2-2-2-2-2--|
 
G|------------------------------------------------------------------|
D|------------------------------------------------------------------|
A|------------------------------------------------------------------|
D|-4-4-4-4-4-4-4-4-3-3-3-3-3-3-3-3-2-2-2-2-2-2-2-2-2-2-2-2-2-2-2-2--|
 
G|------------------------------------------------------------------|
D|------------------------------------------------------------------|
A|------------------------------------------------------------------|
D|-4-4-4-4-4-4-4-4-3-3-3-3-3-3-3-3-2-2-2-2-2-2-2-2-2-2-2-2-2-2-2-2--|
 
G|------------------------------------------------------------------|
D|------------------------------------------------------------------|
A|------------------------------------------------------------------|
D|-4-4-4-4-4-4-4-4-3-3-3-3-3-3-3-3-2-2-2-2-2-2-2-2-2-2-2-2-2-2-2-2--|
 
[Chorus]
 
G|------------------------------------------------------------------|
D|------------------------------------------------------------------|
A|------------------------------------------------------------------|
D|-4~--------------3~--------------2-2-2-2-2-2-2-2-2-2-2-2-2-2-2-2--|
 
G|------------------------------------------------------------------|
D|------------------------------------------------------------------|
A|------------------------------------------------------------------|
D|-4~--------------3~--------------2-2-2-2-2-2-2-2-2-2-2-2-2-2-2-2--|
 
G|------------------------------------------------------------------|
D|------------------------------------------------------------------|
A|------------------------------------------------------------------|
D|-4-4-4-4-4-4-4-4-3-3-3-3-3-3-3-3-2-2-2-2-2-2-2-2-2-2-2-2-2-2-2-2--|
 
G|------------------------------------------------------------------|
D|------------------------------------------------------------------|
A|------------------------------------------------------------------|
D|-4-4-4-4-4-4-4-4-3-3-3-3-3-3-3-3x---------------------------------|
            
Submit corrections

↑ Back to top | Tablatures and chords for acoustic guitar and electric guitar, ukulele, drums are parodies/interpretations of the original songs. You may use it for private study, scholarship, research or language learning purposes only