Home » S » Seahaven »

Seahaven - On The Floor Bass

Artists:  A B C D E F G H I J K L M N O P Q R S T U V W X Y Z # 

On The Floor Bass

(ver. 1) Click to play this song!
Seahaven
 Rating:
4.3/5 (26 votes)
                (Tuning: Drop D)
 
[Intro]
 
(Rest)
 
[Verse 1]
 
(Rest)
 
[Chorus]
 
(Rest)
 
[Verse 2]
 
G|-------------------------------------------------|
D|-------------6--6--6--6--------------------------|
A|-------------------------------------------------|
D|-8--8--8--8--------------4--4--4--4--4--4--4--4--|
 
G|-------------------------------------------------|
D|-------------6--6--6--6--------------------------|
A|-------------------------------------------------|
D|-8--8--8--8--------------4--4--4--4--4--4--4--4--|
 
G|-------------------------------------------------|
D|-------------6--6--6--6--------------------------|
A|-------------------------------------------------|
D|-8--8--8--8--------------4--4--4--4--4--4--4--4--|
 
G|-------------------------------------------------|
D|-------------6--6--6--6--------------------------|
A|-------------------------------------------------|
D|-8--8--8--8--------------4--4--4--4--4--4--4--4--|
 
[Chorus]
 
G|-------------------------------------------------|
D|-------------6--6--6--6--------------------------|
A|-------------------------------------------------|
D|-8--8--8--8--------------4--4--4--4--4--4--4--4--|
 
G|-------------------------------------------------|
D|-------------6--6--6--6--------------------------|
A|-------------------------------------------------|
D|-8--8--8--8--------------4--4--4--4--4--4--4--4--|
 
G|-------------------------------------------------|
D|-------------6--6--6--6--------------------------|
A|-------------------------------------------------|
D|-8--8--8--8--------------4--4--4--4--4--4--4--4--|
 
G|-------------------------------------------------|
D|-------------------------------------------------|
A|-------------------------------------------------|
D|-1--1--1--1--1--1--1--1--4~----------------------|
 
G|-------------------------------------------------|
D|-------------6--6--6--6--------------------------|
A|-------------------------------------------------|
D|-8--8--8--8--------------4--4--4--4--4--4--4--4--|
 
G|-------------------------------------------------|
D|-------------6--6--6--6--------------------------|
A|-------------------------------------------------|
D|-8--8--8--8--------------4--4--4--4--4--4--4--4--|
 
[Interlude]
 
G|-------------------------------------------------|
D|-------------6--6--6--6--------------------------|
A|-------------------------------------------------|
D|-8--8--8--8--------------4--4--4--4--4--4--4--4--|
 
G|-------------------------------------------------|
D|-------------6--6--6--6--------------------------|
A|-------------------------------------------------|
D|-8--8--8--8--------------4--4--4--4--4--4--4--4--|
 
[Bridge]
 
G|-------------------------------------------------|
D|-------------------------------------------------|
A|-------------------------------------------------|
D|-8--8--8--8--6--6--6--6--4--4--4--4--4--4--4--4--|
 
G|-------------------------------------------------|
D|-------------------------------------------------|
A|-------------------------------------------------|
D|-8--8--8--8--6--6--6--6--4--4--4--4--4--4--4--4--|
 
G|-------------------------------------------------|
D|-------------------------------------------------|
A|-------------------------------------------------|
D|-8--8--8--8--6--6--6--6--4--4--4--4--4--4--4--4--|
 
G|-------------------------------------------------|
D|-------------------------------------------------|
A|-------------------------------------------------|
D|-1--1--1--1--1--1--1--1--4--4--4--4--4--4--4--4--|
 
[Chorus]
 
G|-------------------------------------------------|
D|-------------------------------------------------|
A|-------------------------------------------------|
D|-8~----------------------------------------------|
            
Submit corrections

↑ Back to top | Tablatures and chords for acoustic guitar and electric guitar, ukulele, drums are parodies/interpretations of the original songs. You may use it for private study, scholarship, research or language learning purposes only