Home » S » Seahaven »

Seahaven - Lose Bass

Artists:  A B C D E F G H I J K L M N O P Q R S T U V W X Y Z # 

Lose Bass

(ver. 1) Click to play this song!
Seahaven
[Intro]
 
(Rest)
 
[Verse 1]
 
(Rest)
 
[Instrumental]
 
G|------------------------------------------------------------------|
D|-16--------14h16-14--------12h14-12-------------------------------|
A|-----16-14-----------14-12-------------10-------------------------|
D|------------------------------------------------------------------|
 
G|------------------------------------------------------------------|
D|-16--------14h16-14--------12h14-12-------------12----------------|
A|-----16-14-----------14-12-------------10-------------10----------|
D|------------------------------------------------------------------|
 
[Verse 2]
 
G|------------------------------------------------------------------|
D|------------------------------------------------------------------|
A|-14~-----------------12~------------10~------------10~------------|
D|------------------------------------------------------------------|
 
G|------------------------------------------------------------------|
D|------------------------------------------------------------------|
A|-14~-----------------12~------------10~------------10~------------|
D|------------------------------------------------------------------|
 
G|------------------------------------------------------------------|
D|------------------------------------------------------------------|
A|-14~-----------------12~------------10~------------10~------------|
D|------------------------------------------------------------------|
 
G|------------------------------------------------------------------|
D|------------------------------------------------------------------|
A|-14~-----------------12~------------------------------------------|
D|------------------------------------5~-----------5-5~-------------|
 
[Chorus]
 
G|------------------------------------------------------------------|
D|------------------------------------------------------------------|
A|------------------------------------------------------------------|
D|-9~------------------7~-------------5~-------------5~----------7--|
 
G|------------------------------------------------------------------|
D|------------------------------------------------------------------|
A|------------------------------------------------------------------|
D|-9~------------------7~-------------5~-------------5~----------7--|
 
(Rest)
 
 
[Verse 3]
 
G|------------------------------------------------------------------|
D|------------------------------------------------------------------|
A|------------------------------------------------------------------|
D|-9~------------------7~-------------5~-------------5~-------------|
 
G|------------------------------------------------------------------|
D|------------------------------------------------------------------|
A|------------------------------------------------------------------|
D|-9~------------------7~-------------5~-------------5~-------------|
 
G|------------------------------------------------------------------|
D|------------------------------------------------------------------|
A|------------------------------------------------------------------|
D|-9~------------------7~-------------5~-------------5~-------------|
 
G|------------------------------------------------------------------|
D|------------------------------------------------------------------|
A|------------------------------------------------------------------|
D|-9~------------------7~-------------5~-------------5~-------------|
 
[Chorus]
 
G|------------------------------------------------------------------|
D|-----------------------------14-----------------------------------|
A|--------------------------12----12--------------------------------|
D|-9~------------------7~-------------5~-------------5~----------7--|
 
G|------------------------------------------------------------------|
D|-----------------------------14-----------------------------------|
A|--------------------------12----12--------------------------------|
D|-9~------------------7~-------------5~-------------5~----------7--|
 
G|------------------------------------------------------------------|
D|-----------------------------14-----------------------------------|
A|--------------------------12----12--------------------------------|
D|-9~------------------7~-------------5~-------------5~----------7--|
 
G|---------------------------------------------------------------------------------|
D|---------------------------------------------------------------------------------|
A|---------------------------------------------------------------------------------|
D|-9~------------------7~-------------5~-------------7~-------------7~-------------|
 
(Rest for the outro)
            
Submit corrections

↑ Back to top | Tablatures and chords for acoustic guitar and electric guitar, ukulele, drums are parodies/interpretations of the original songs. You may use it for private study, scholarship, research or language learning purposes only