Home » S » Seahaven »

Seahaven - I Dont Belong Here Chords

Artists:  A B C D E F G H I J K L M N O P Q R S T U V W X Y Z # 

I Dont Belong Here Chords

(ver. 1) Click to play this song!
Seahaven
[Intro]
 
(Rest)
 
[Verse 1]
 
(Rest for the first part)
 
G|------------------------------------------------------------------|
D|------------------------------------------------------------------|
A|-2-------------------------------2--------------------------------|
D|-------2--4--5--7-----5------4---------2--4--5--7-----5-----------|
 
G|------------------------------------------------------------------|
D|------------------------------------------------------------------|
A|-2-------------------------------2--------------------------------|
D|-------2--4--5--7-----5------4---------2--4--5--7-----5-----------|
 
G|------------------------------------------------------------------|
D|------------------------------------------------------------------|
A|-2-------------------------------2--------------------------------|
D|-------2--4--5--7-----5------4---------2--4--5--7-----------------|
 
[Chorus]
 
(Rest)
 
G|------------------------------------------------------------------|
D|-14h17p14h17p14~-----------------9h12p9h12p9-7~-------------------|
A|------------------------------------------------------------------|
D|------------------------------------------------------------------|
 
G|------------------------------------------------------------------|
D|-14h17p14h17p14~-----------------9h12p9h12p9-8~-------------------|
A|------------------------------------------------------------------|
D|------------------------------------------------------------------|
 
(Rest)
 
[Verse 2]
 
G|------------------------------------------------------------------|
D|------------------------------------------------------------------|
A|---------------------------------2--------------------------------|
D|---------------------------------------2--4--5--7-----5-----------|
 
G|------------------------------------------------------------------|
D|------------------------------------------------------------------|
A|-2-------------------------------2--------------------------------|
D|-------2--4--5--7-----5------4---------2--4--5--7-----5-----------|
 
G|------------------------------------------------------------------|
D|------------------------------------------------------------------|
A|-2-------------------------------2--------------------------------|
D|-------2--4--5--7-----5------4---------2--4--5--7-----------------|
 
[Bridge]
 
G|------------------------------------------------------------------|
D|------------------------------------------------------------------|
A|---------------------------------2-2------2------2----------------|
D|------------------------------------------------------------------|
 
G|--------------------------------------------------|
D|--------------------------------------------------|
A|-2-2-2-2-2-2-2-2-2-2-2-2--------------------------|
D|-------------------------5-5-5-5-5-5-4-4-4-4-4-4--|
 
G|--------------------------------------------------|
D|---------------------2-4--------------------------|
A|-2-2-2-2-2-2-2-2-2-2------------------------------|
D|-------------------------5-5-5-5-5-5-4-4-4-4-4-4--|
 
 
[Chorus]
 
G|------------------------------------------------------------------|
D|------------------------------------------------------------------|
A|------------------------------------------------------------------|
D|---------------------------------9-9-9-9-9-9-9-9-7-7-7-7-7-7-7-7--|
 
G|------------------------------------------------------------------|
D|------------------------------------------------------------------|
A|------------------------------------------------------------------|
D|-2-2-2-2-2-2-2-4-5-5-5-5-5-5-5-7-9-9-9-9-9-9-9-9-7-7-7-7-7-7-7-7--|
 
G|------------------------------------------------------------------|
D|------------------------------------------------------------------|
A|-7--7-7----------2-2-2--0-0-0--7--7-7----------2-2-2---0-0x-------|
D|------------------------------------------------------------------|
 
G|------------------------------------------------------------------|
D|------------------------------------------------------------------|
A|-7--7-7----------2-2-2--0-0-0--7--7-7----------2-2-2---0x---------|
D|------------------------------------------------------------------|
 
(Rest)
 
[Outro]
 
G|------------------------------------------------------------------|
D|------------------------------------------------------------------|
A|-2~---------/14----------------0~---------------------------------|
D|------------------------------------------------------------------|
 
G|------------------------------------------------------------------|
D|------------------------------------------------------------------|
A|-2~---------/14----------------0~-------------------------0-------|
D|------------------------------------------------------------------|
 
G|------------------------------------------------------------------|
D|------------------------------------------------------------------|
A|-2~---------/14----------------0~---------------------------------|
D|------------------------------------------------------------------|
 
G|------------------------------------------------------------------|
D|------------------------------------------------------------------|
A|-2~---------/14----------------0~-------------------------0-------|
D|-------------------------------------------------------------4----|
 
G|------------------------------------------------------------------|
D|------------------------------------------------------------------|
A|-2~--------/14-14-14-14-14-----0~--------/12-12-12-12-12----------|
D|------------------------------------------------------------------|
 
G|------------------------------------------------------------------|
D|------------------------------------------------------------------|
A|-2~--------/14-14-14-14-14-----0~--------/12-12-12-12-12----------|
D|------------------------------------------------------------------|
 
G|------------------------------------------------------------------|
D|------------------------------------------------------------------|
A|-2~--------/14-14-14-14-14-----0~--------/12-12-12-12-12----------|
D|------------------------------------------------------------------|
 
G|------------------------------------------------------------------|
D|------------------------------------------------------------------|
A|-2~--------/14-14-14-14-14-----0~--------/12-12-12-12-12----------|
D|------------------------------------------------------------------|
 
G|------------------------------------------------------------------|
D|------------------------------------------------------------------|
A|------------------------------------------------------------------|
D|-2~---------------------------------------------------------------|
            
Submit corrections

↑ Back to top | Tablatures and chords for acoustic guitar and electric guitar, ukulele, drums are parodies/interpretations of the original songs. You may use it for private study, scholarship, research or language learning purposes only