» » »

Sea And Cake - Two Dolphins Bass

Artists:  A B C D E F G H I J K L M N O P Q R S T U V W X Y Z # 

Two Dolphins Bass

(ver. 1) Click to play this song!
Sea And Cake
 Rating:
4/5 (4 votes)
                Two Dolphins--Song Title	
The Sea And Cake--Band
Oui--Album

Two bar intro-no bass.  Timing is 4/4, but pretty quick.

First Riff:

|---------------|--------4--5---|7---------4----|----------------|
|-----5-7-------|---------------|--------------7|----------------|
|5-7------------|---------------|---------------|----------------|
|---------------|---------------|---------------|----------------|

Transition:

|---------------|-----------5---|--------------7h|9------4----5---|
|5--------------|-------5-7---7-|--------7-------|----------------|
|-----5---------|---------------|----------------|----------------|
|---------------|---------------|----------------|----------------|

Second Riff:

|-----5--------7h|9-----4----5---|
|5-7---7---------|---------------|
|----------------|---------------|
|----------------|---------------|

That's about all there is to it.  Feel free to throw in some slight variations;
Claridge stays pretty true to these riffs on the album but most of the songs 
seem ripe for a little playing around in a live setting.
            
Submit corrections

↑ Back to top | Tablatures and chords for acoustic guitar and electric guitar, ukulele, drums are parodies/interpretations of the original songs. You may use it for private study, scholarship, research or language learning purposes only