» » »

Screeching Weasel - My Right Tabs

Artists:  A B C D E F G H I J K L M N O P Q R S T U V W X Y Z # 

My Right Tabs

(ver. 1) Click to play this song!
Screeching Weasel
 Rating:
4/5 (4 votes)

 My Right lessons Tabs too difficult? Try these video lessons and learn fast
 
                Screeching Weasel "My Right"

h    hammer on
/     slide up
\     slide down  
~    bend     

use a lot of distortion
Intro
e:------------------------------------------------------------------------------
B:10--h12--12--12-12--10--h12--12-12--10--h12--12-12----------------------------
G:------------------------------------------------------------------------------
D:------------------------------------------------------------------------------
A:------------------------------------------------------------------------------
E:-----------------------------------------------------------------------------
Play five times, on the third time around the backup guitar comes in playing
a B F# E G chord progression

e:------------------------------------------------------------------------------
E:10--h12-12-12-12--12-12--10--h12-12-12--10--h12-12-12-------------------------
G:------------------------------------------------------------------------------
D:------------------------------------------------------------------------------
A:------------------------------------------------------------------------------
E:------------------------------------------------------------------------------
*****
e:------------------------------------------------------------------------------
B:10--h12--12--12-12-12-12-12-12-12--12--h14--14--14-14-14-14-14-14-14----------
G:------------------------------------------------------------------------------
D:------------------------------------------------------------------------------
A:------------------------------------------------------------------------------
E:------------------------------------------------------------------------------
  
e:------------------------------------------------------------------------------
B:14--h15--15--15-15-15-15-15-15-15--15--14--12--15--14--12--12--12\--10--h12-12
G:------------------------------------------------------------------------------
D:------------------------------------------------------------------------------
A:------------------------------------------------------------------------------
E:------------------------------------------------------------------------------

e:------------------------------------------------------------------------------
B:12-12-12-12-12-12-12--12--h14--14--14-14-14-14-14-14-14--14--h15--15--15------
G:------------------------------------------------------------------------------
D:------------------------------------------------------------------------------
A:------------------------------------------------------------------------------
E:------------------------------------------------------------------------------

e:------------------------------------------------------------------------------
B:15-15-15-15-15-15-15-14-12-15-14-12-15-14-12-15-14-12--\10--h12~~-------------
G:------------------------------------------------------------------------------
D:------------------------------------------------------------------------------
A:------------------------------------------------------------------------------
E:------------------------------------------------------------------------------
  
Now  play a B F# G E chord progression six times 
slowly play a B F# G E chord progression two times
play a B F# G E chord progression six times
play a B F# G E chord progression slowly twice
go back to ***** and play through the rest of the intro once
play a B F# G E chord progression six times
play a B F# G E chord progression slowly four times, and end on B
            
Submit corrections


        My Right lessons Hard to play? Try these video lessons and learn fast My Right lessons
        
↑ Back to top | Tablatures and chords for acoustic guitar and electric guitar, ukulele, drums are parodies/interpretations of the original songs. You may use it for private study, scholarship, research or language learning purposes only