Home » S » Screaming Trees »

Screaming Trees - The Second I Awake Tabs

Artists:  A B C D E F G H I J K L M N O P Q R S T U V W X Y Z # 

The Second I Awake Tabs

(ver. 1) Click to play this song!
Screaming Trees
Half step down

eb|------------------------------|
Bb|------------------------------|
Gb|-9-9-9-9-9-9-9-14--13--10\9---|
Db|------------------------------|
Ab|-7-7-7-7-7-7-7-12--11--8-\7---|
Eb|------------------------------|

eb|------------------------------|
Bb|------------------------------|
Gb|-9-9-9-9-9-9-9-14--13--14/16--|
Db|------------------------------|
Ab|-7-7-7-7-7-7-7-12--11--12/14--|
Eb|------------------------------|

eb|------------------------------|
Bb|------------------------------|
Gb|-16-16-16-16-16-16-14-13-10\9-|
Db|------------------------------|
Ab|-14-14-14-14-14-14-12-11-8-\7-|
Eb|------------------------------|

eb|------------------------------|
Bb|------------------------------|
Gb|---9--9--9--9--9--9--9--9-----|
Db|------------------------------|
Ab|---7--7--7--7--7--7--7--7-----|
Eb|------------------------------|

Verse
eb|---------------------------------|
Bb|---------------------------------|
Gb|-7-7-7-7---------1-1-1-1-1-1-1-1-|
Db|---------7-7-7-7-2-2-2-2-2-2-2-2-|
Ab|-5-5-5-5---------2-2-2-2-2-2-2-2-|
Eb|---------5-5-5-5-0-0-0-0-0-0-0-0-|

eb|---------------------------------|
Bb|---------------------------------|
Gb|-7-7-7-7---------1-1-1-1-1-1-1-1-|
Db|---------7-7-7-7-2-2-2-2-2-2-2-2-|
Ab|-5-5-5-5---------2-2-2-2-2-2-2-2-|
Eb|---------5-5-5-5-0-0-0-0-0-0-0-0-|

eb|---------------------------------|
Bb|---------------------------------|
Gb|-7-7-7-7---------1-1-1-1-1-1-1-1-|
Db|---------7-7-7-7-2-2-2-2-2-2-2-2-|
Ab|-5-5-5-5---------2-2-2-2-2-2-2-2-|
Eb|---------5-5-5-5-0-0-0-0-0-0-0-0-|

eb|---------------------------------|
Bb|---------------------------------|
Gb|-7-7-7-7-------------------------|
Db|---------7-7-7-7-9-9-9-9-9-9-9-9-|
Ab|-5-5-5-5---------9-9-9-9-9-9-9-9-|
Eb|---------5-5-5-5-7-7-7-7-7-7-7-7-|            
Submit corrections

↑ Back to top | Tablatures and chords for acoustic guitar and electric guitar, ukulele, drums are parodies/interpretations of the original songs. You may use it for private study, scholarship, research or language learning purposes only