Home » S » Screaming Trees »

Screaming Trees - Shadow Of The Season Bass

Artists:  A B C D E F G H I J K L M N O P Q R S T U V W X Y Z # 

Shadow Of The Season Bass

(ver. 1) Click to play this song!
Screaming Trees
Screaming Trees - Shadow Of The Season


G|-------|
D|-----3-|
A|-3h5---|
E|-------|

Verse
G|----------------------------|
D|-------------------------3--|
A|-5--5-5-5--x-5--x-5--3h5----|
E|----------------------------|

Chorus
G|--------------------------------|
D|----------------------------3---|
A|----------3--5p3-0-5--5p3-0---5-| x2
E|-1--3--5------------------------|

G|-------------------------------|
D|-----------------------555553--|
A|-3--3--/5-3------------------5-|
E|------------5-3--3-3-3---------|

Bridge
G|------------------------------|
D|------3------------3--5-3-----|
A|-5---------3----5---------5-3-| x2
E|------------------------------|
            
Submit corrections

↑ Back to top | Tablatures and chords for acoustic guitar and electric guitar, ukulele, drums are parodies/interpretations of the original songs. You may use it for private study, scholarship, research or language learning purposes only