Home » S » Screaming Trees »

Screaming Trees - Reflections Tabs

Artists:  A B C D E F G H I J K L M N O P Q R S T U V W X Y Z # 

Reflections Tabs

(ver. 1) Click to play this song!
Screaming Trees
(Intro)
-------------------------------------------------------------------------------
                         Reflections - Screaming Trees
-------------------------------------------------------------------------------

Tuning: Standard

e|-2-2-3-2-0-0-0------------------------------------------------------------|
B|-3-3-3-3-3-0-0--2--2--2---------------------------------------------------|
G|-2-2-2-2-2-0-0--2--2--2--1-1-2-1-2-1--------------------------------------|
D|----------------2--2--2--2-2-2-2-2-2--------------------------------------|
A|-------------------------2-2-2-2-2-2--------------------------------------|
E|--------------------------------------------------------------------------|

e|-2-2-3-2-0-0-0------------------------------------------------------------|
B|-3-3-3-3-3-0-0--2--2------------------------------------------------------|
G|-2-2-2-2-2-0-0--2--2----------1-1-2-1-2-1---------------------------------|
D|----------------2--2----------2-2-2-2-2-2---------------------------------|
A|--------------------------0-2-2-2-2-2-2-2---------------------------------|
E|---------------------0-2-3------------------------------------------------|


************************************

| /   slide up
| \   slide down
| h   hammer-on
| p   pull-off
| ~   vibrato
| +   harmonic
| x   Mute note
| b   Bend
| pb  Pre-bend
| br  Bend release
| pbr Pre-bend release
| brb Bend release bend

************************************
Strumming may be a bit different then what is here.  Pull up the song and you should get 
the idea.  A great tune.
            
Submit corrections

↑ Back to top | Tablatures and chords for acoustic guitar and electric guitar, ukulele, drums are parodies/interpretations of the original songs. You may use it for private study, scholarship, research or language learning purposes only