Home » S » Screaming Jets »

Screaming Jets - Better Tabs

Artists:  A B C D E F G H I J K L M N O P Q R S T U V W X Y Z # 

Better Tabs

(ver. 3) Click to play this song!
Screaming Jets
                
This is a legendary song!

Guitar Intro 
(After drums beats and bass guitar)
|---------------------------------------------| 
|--5---5--5---------------0---0--0------------| 
|-------------6----6--6--------------6---6--6-|  x8
|----7------7----7------7---7------7---7------| 
|---------------------------------------------| 
|---------------------------------------------| 


Pre-Chorus 
|-----------------------------------------| 
|-----------------------------------------| 
|-----------------------7--7----9h7-9h7---|  x2
|--4--4-----x--7--7-----7--7----9h7-9h7---| 
|--4--4-----x--7--7-----5--5---7----------| 
|--2--2-----x--5--5-----------------------| 

Chorus
|-----------------------------------------|
|-----------------------------------------|
|--4------7------2------4-----------------|
|--4------7------2------4-------0h2p0-----|  x2
|--2------5------0------2-----0h2----4h2--|
|-----------------------------------------|

Back to Guitar intro x6
Pre-chorus x2
Chorus x2
Then too...

Interlude
|-------------------------------------------------| 
|---2---------------------------------------------| 
|---2---------HOLD Through out--------------------| 
|---2---------------------------------------------| 
|---0---------------------------------------------| 
|-------------------------------------------------| 

Then Pre-Chorus x2
Chorus x2
Then...

Final solo
|----------------------------------------| 
|----------------------------------------|
|--7b(9)----5-------7b---7b----5-----5---| 
|------------7--7---------------7--7-----| 
|----------------------------------------| 
|----------------------------------------| 

|----------------------------------------| 
|----------------------------------------| 
|--4--5--7--5--4-------------------------| 
|-----------------5---7------------------| 
|----------------------------------------| 
|----------------------------------------| 

|-------------------------------------8--| 
|------------------------------8---10----| 
|----5--------4----5\7--7---9------------| 
|-----7----------------------------------| 
|----------------------------------------| 
|----------------------------------------| 

|---7--8--10--8--7-----------------------| 
|-------------------8--10---10--10--10b--| 
|----------------------------------------| 
|----------------------------------------|
|----------------------------------------| 
|----------------------------------------| 

|--17---------------------------------------------------------------17--20-| 
|-----20b--20b----20br--20b--20--17--20----20br--17--20----20b--20b--------| 
|--------------------------------------------------------------------------| 
|--------------------------------------------------------------------------| 
|--------------------------------------------------------------------------| 
|--------------------------------------------------------------------------| 

|--20br--17---20b-r--17---20b-r---17--17--------------------| 
|----------17----------17-----------17---20b-r--17------20--| 
|---------------------------------------------------19b-----| 
|-----------------------------------------------------------| 
|-----------------------------------------------------------| 
|-----------------------------------------------------------| 

|--------------------------------------------------------------------------| 
|--20---20--20--20----------20-----------20----20------20------------------| 
|--19b--19b-----19b-r19\17--19b--19b--19b---19b---19b-----19b-19b-r19\17\4-| 
|--------------------------------------------------------------------------|
|--------------------------------------------------------------------------| 
|--------------------------------------------------------------------------| 


OUTRO 
|-------------------------------------3-----| 
|-------------------------------------3-----| 
|--5----------------------------------0-----| 
|--5----------------------------------0-----| 
|--3----------------------------------2-----| 
|-------------------------------------3-----| 

|-------------------------------------17--17--20b---| 
|---20bb--20b-r20\17---20--20------8----------------| 
|--------------------19----19------7b---------------| 
|---------------------------------------------------| 
|---------------------------------------------------| 
|---------------------------------------------------| 

|--20---17------------------------------------------|
|-----------20b--r20\17--20b--r20\17-----20---------|
|------------------------------------19b----19b--r--|
|---------------------------------------------------|
|---------------------------------------------------|
|---------------------------------------------------|

|--------------------------------|
|--------------------------------|
|--17\19\17--17--17--17\19\17----| 
|-----------------------------17-|
|--------------------------------|
|--------------------------------|
            
Submit corrections

↑ Back to top | Tablatures and chords for acoustic guitar and electric guitar, ukulele, drums are parodies/interpretations of the original songs. You may use it for private study, scholarship, research or language learning purposes only