Home » S » Scott Stapp »

Scott Stapp - Let Me Go Tabs

Artists:  A B C D E F G H I J K L M N O P Q R S T U V W X Y Z # 

Let Me Go Tabs

(ver. 1) Click to play this song!
Scott Stapp
Scott Stapp-Let Me Go
Not sure if its 100% but its close enough and the only tab of this song so far.

Standard tuning in D

*= harmonic
/= Slide
h= Hammer on
p= pull off

Intro: Clean/Blues sound w/chorus and delay 

E|----------10p0----------10p8--------------------------|
B|-----------------------------10-10h11p8------------7*-|
G|-11------------11-----------------------15b(14)----7*-|
D|------------------12-10----------------------------7*-|
A|----12-12---------------------------------------------|
D|------------------------------------------------0-----|

Verse:
E|------------10p0-----------------------10p8----0--0--0--0--0-----------0-0-0-0--------0-0-0-0--|
B|---------------------0--0--0--0-------------10-10-10-10-10-10--10h11p8-8-8-8-8-8h10-7-7-7-7-7--|
G|-11p0-------------11-11-11-11-11---------------0--0--0--0--0-----------0-0-0-0--------0-0-0-0--|
D|------12-------------0--0--0--0--12-10---------------------------------------------------------|
A|-----------------------------------------------------------------------------------------------|
D|-----------------------------------------------------------------------------------------------|

Verse Contin: 
E|-0-0-0-0--------10p8------0--0--0--0--0----------0-0-0-0--------0-0-0-0--|
B|-7-7-7-7---------------10-10-10-10-10-10-10h11p8-8-8-8-8-8h10-7-7-7-7-7--|
G|-0-0-0-0------------------0--0--0--0--0------------0-0-0--------0-0-0-0--|
D|----------12-10----------------------------------------------------------|
A|-------------------------------------------------------------------------|
D|-------------------------------------------------------------------------|

Chorus:
E|------------------------------------------|
B|-3-3-3-3-3-3-3-3--------------------------|
G|-2-2-2-2-2-2-2-2--12-12-12-12-12-12-12-12-|
D|-0-0-0-0-0-0-0-0--12-12-12-12-12-12-12-12-|
A|-0-0-0-0-0-0-0-0--10-10-10-10-10-10-10-10-|
D|-0-0-0-0-0-0-0-0--------------------------|

Brigde: Repeat twice then..
E|-----------------------|--------------------------------------|
B|-----------------------|--------------------------------------|
G|-14-14/15-17-14-8-8-8-7|-14-12-11-8-8-8-7-12-11-9-7-8-8-8-7~--|
D|-----------------------|--------------------------------------|
A|-12-12/13-15-12-6-6-6-5|-12-10-9--6-6-6-5-10-9--7-5-6-6-6-5~--|
D|-----------------------|--------------------------------------|


E|-0-0-0-0--------10p8------0--0--0--0--0----------0-0-0-0--------0-0-0-0--|
B|-7-7-7-7---------------10-10-10-10-10-10-10h11p8-8-8-8-8-8h10-7-7-7-7-7--|
G|-0-0-0-0------------------0--0--0--0--0------------0-0-0--------0-0-0-0--|
D|----------12-10----------------------------------------------------------|
A|-------------------------------------------------------------------------|
D|-------------------------------------------------------------------------|

Brigde: 
clean repeat 3 times then this to end it
E|-----------------------|-------------|
B|-----------------------|-------------|
G|-14-14/15-17-14-8-8-8-7|-14-12-11-12-|
D|-----------------------|-------------|
A|-12-12/13-15-12-6-6-6-5|-12-10-9--10-|
D|-----------------------|-------------|

Chorus:
E|------------------------------------------|
B|-3-3-3-3-3-3-3-3--------------------------|
G|-2-2-2-2-2-2-2-2--12-12-12-12-12-12-12-12-|
D|-0-0-0-0-0-0-0-0--12-12-12-12-12-12-12-12-|
A|-0-0-0-0-0-0-0-0--10-10-10-10-10-10-10-10-|
D|-0-0-0-0-0-0-0-0--------------------------|

Outro:
E|-0-0-0-0--------10p8------0--0--0--0--0----------0-0-0-0--------0-0-0-0--|
B|-7-7-7-7---------------10-10-10-10-10-10-10h11p8-8-8-8-8-8h10-7-7-7-7-7--|
G|-0-0-0-0------------------0--0--0--0--0------------0-0-0--------0-0-0-0--|
D|----------12-10----------------------------------------------------------|
A|-------------------------------------------------------------------------|
D|-------------------------------------------------------------------------|
            
Submit corrections

↑ Back to top | Tablatures and chords for acoustic guitar and electric guitar, ukulele, drums are parodies/interpretations of the original songs. You may use it for private study, scholarship, research or language learning purposes only