Home » S » Scott Helman »

Scott Helman - Hang Ups Tabs

Artists:  A B C D E F G H I J K L M N O P Q R S T U V W X Y Z # 

Hang Ups Tabs

(ver. 1) Click to play this song!
Scott Helman
 Rating:
4.3/5 (12 votes)
                Guitar I: Electric (Switches the guitar from Clean to Gain and distorted throughout the song)
Guitar II: Acoustic  (It is actually a Ukelele, but I changed it for ya'll)
Guitar III: Acoustic

[Verse 1] Guitar I (Clean)
        Palm Mute the whole thing
e |-------------------------------------------------------------------------------|
B |-------------------------------------------------------------------------------|
G |-----1-0----0------------1-0----0------------0h1-0----0------------1-0----3----|
D |---------3----3-1------------3----3-1--------------3----3-1------------3-------|
A |------------------3-------------------3---------------------3--2---------------|  x2
D#|-2-------------------4-------------------0-------------------------------------|

e |-------------------------------------------------------------------------------|
B |-------------------------------------------------------------------------------|
G |-----1-0----0------------1-0----0------------0h1-0----0------------1-0---------|
D |---------3----3-1------------3----3-1--------------3----3-1------------3-------|
A |------------------3-------------------3---------------------3--2---------------|
D#|-2-------------------4-------------------0-------------------------------------|

[Chorus 1] Guitar II

e |-----4-3----3------------4-2----3-----------3h4-3----3-----------4-3--------|
B |---------6----6-4------------6----6-4-------------6----6-4-----------6------|
G |-------------------5------------------5--------------------5-3--------------|
D |-3-------------------6------------------1-----------------------------------|
A |----------------------------------------------------------------------------|  x4
D#|----------------------------------------------------------------------------|


 Guitar I (Gain)
                                   
e |-------------------------------------------------------------------------|
B |-------------------------------------------------------------------------|
G |-----------------------------------------------------------------------3\|
D |-3-------------------------------6-----/1------------------------------3\|
A |-3-------------------------------6-----/1------------------------------1\|
D#|-2-------------------------------5-----/0--------------------------------|
                               
e |-------------------------------------------------------------------------|
B |-------------------------------------------------------------------------|
G |-------------------------------------------------------------------------|
D |-3-------------------------------6-----/1--------------------------------|
A |-3-------------------------------6-----/1--------------------------------|
D#|-2-------------------------------5-----/0--------------------------------|


[Verse 2] Guitar I (Clean)
        Palm Mute the whole thing
e |-------------------------------------------------------------------------------|
B |-------------------------------------------------------------------------------|
G |-----1-0----0------------1-0----0------------0h1-0----0------------1-0---------|
D |---------3----3-1------------3----3-1--------------3----3-1------------3-------|
A |------------------3-------------------3---------------------3--2---------------| x2
D#|-2-------------------4-------------------0-------------------------------------|

e |-------------------------------------------------------------------------------|
B |-------------------------------------------------------------------------------|
G |-----1-0----0------------1-0----0------------0h1-0----0------------1-0---------|
D |---------3----3-1------------3----3-1--------------3----3-1------------3-------|
A |------------------3-------------------3---------------------3--2---------------|
D#|-2-------------------4-------------------0-------------------------------------|

  Guitar II (Play this "Ukelele" part on the last round of the Verse)

e |--------------------------------------------------------------------------------------------|
B |-6--6-6-6--6-6-6-6-6--9--9-9-9--9-9-9-9-9--4--4-4-4--4-4-4-4-4--11-11-11-11--11-11-11-11-11-|
G |-5--5-5-5--5-5-5-5-5--8--5-5-5--5-5-5-5-5--3--3-3-3--3-3-3-3-3--10-10-10-10--10-10-10-10-10-|
D |-3--3-3-3--3-3-3-3-3--6--6-6-6--6-6-6-6-6--1--1-1-1--1-1-1-1-1--8--8--8--8---8--8--8--8--8--|
A |--------------------------------------------------------------------------------------------|
D#|--------------------------------------------------------------------------------------------|

[Chorus 2] Guitar II

e |-----4-3----3------------4-2----3-----------3h4-3----3-----------4-3--------|
B |---------6----6-4------------6----6-4-------------6----6-4-----------6------|
G |-------------------5------------------5--------------------5-3--------------|
D |-3-------------------6------------------1-----------------------------------|
A |----------------------------------------------------------------------------|  x4
D#|----------------------------------------------------------------------------|


 Guitar I (Gain)
                                   
e |-------------------------------------------------------------------------|
B |-------------------------------------------------------------------------|
G |-----------------------------------------------------------------------3\|
D |-3-------------------------------6-----\1------------------------------3\|
A |-3-------------------------------6-----\1------------------------------1\|
D#|-2-------------------------------5-----\0--------------------------------|
                               
e |-------------------------------------------------------------------------|
B |-------------------------------------------------------------------------|
G |-------------------------------------------------------------------------|
D |-3-------------------------------6-----\1--------------------------------|
A |-3-------------------------------6-----\1--------------------------------|
D#|-2-------------------------------5-----\0--------------------------------|


  [Bridge] Guitar III

e |-----------------------------------------------------------------|
B |-6--6-6-----6/-9-9-9-9-----6/-4--4-4-----4/-11-11-11-11----------|
G |-5--5-5-----5/-8-8-8-8-----5/-3--3-3-----3/-10-10-10-10----------|
D |-3--3-3-----3/-6-6-6-6-----3/-1--1-1-----1/-8--8--8--8-----------|
A |-----------------------------------------------------------------|
D#|-----------------------------------------------------------------|


[Chorus 2] Guitar II 

e |-----4-3----3------------4-2----3-----------3h4-3----3-----------4-3--------|
B |---------6----6-4------------6----6-4-------------6----6-4-----------6------|
G |-------------------5------------------5--------------------5-3--------------|
D |-3-------------------6------------------1-----------------------------------|
A |----------------------------------------------------------------------------|  x3
D#|----------------------------------------------------------------------------|

 Guitar I (Gain)
                                   
e |-------------------------------------------------------------------------|
B |-------------------------------------------------------------------------|
G |-----------------------------------------------------------------------3\|
D |-3-------------------------------6-----\1------------------------------3\|
A |-3-------------------------------6-----\1------------------------------1\|
D#|-2-------------------------------5-----\0--------------------------------|
                               
e |-------------------------------------------------------------------------|
B |-------------------------------------------------------------------------|
G |-------------------------------------------------------------------------|
D |-3-------------------------------6-----\1--------------------------------|
A |-3-------------------------------6-----\1--------------------------------|
D#|-2-------------------------------5-----\0--------------------------------|

  Guitar III

e |--------------------------------------------------------------|
B |-6--6-6-----6/-9-9-9-9-----6/-4--4-4-----4/-11-11-11-11-------|
G |-5--5-5-----5/-8-8-8-8-----5/-3--3-3-----3/-10-10-10-10-------|
D |-3--3-3-----3/-6-6-6-6-----3/-1--1-1-----1/-8--8--8--8--------|
A |--------------------------------------------------------------|
D#|--------------------------------------------------------------|


[Outro] Guitar II

e |-----4-3----3------------4-2----3-----------3h4-3----3-----------4-3--------|
B |---------6----6-4------------6----6-4-------------6----6-4-----------6------|
G |-------------------5------------------5--------------------5-3--------------|
D |-3-------------------6------------------1-----------------------------------|
A |----------------------------------------------------------------------------|  x3
D#|----------------------------------------------------------------------------|

 Guitar I (Gain)
                                   
e |-------------------------------------------------------------------------|
B |-------------------------------------------------------------------------|
G |-------------------------------------------------------------------------|
D |-3-------------------------------6-----\1--------------------------------|
A |-3-------------------------------6-----\1--------------------------------|
D#|-2-------------------------------5-----\0--------------------------------|
          
  Guitar III (just strum continouosly) 

e |-----------------------------------------------------------------|
B |-6--6-6-----6/-9-9-9-9-----9\-4--4-4-----4/-11-11-11-11----------|
G |-5--5-5-----5/-8-8-8-8-----8\-3--3-3-----3/-10-10-10-10----------|
G |-5--5-5-----5/-6-6-6-6-----6\-1--1-1-----3/-8--8--8--8-----------|
A |-----------------------------------------------------------------|
D#|-----------------------------------------------------------------|
            
Submit corrections

↑ Back to top | Tablatures and chords for acoustic guitar and electric guitar, ukulele, drums are parodies/interpretations of the original songs. You may use it for private study, scholarship, research or language learning purposes only