» » »

Scorpions - Hey You Tabs

Artists:  A B C D E F G H I J K L M N O P Q R S T U V W X Y Z # 

Hey You Tabs

(ver. 2) Click to play this song!
Scorpions
 Rating:
4/5 (4 votes)

 Hey You lessons Tabs too difficult? Try these video lessons and learn fast
 
                this is a superb song im sure youll agree

i reccomend you play this song with a plectrum. it is alot easier.

Intro:

G ------------------------------------------------------------------|
D ------------------------------------------------------------------|
A ---7-7---7---7-0-3-5-5---5---5-0-2-3-3---3---3-3---------5-5-5-5--|
E ---------------------------------------------------3-3-3-3--------|

x4 then on the first two verses before the first chorus you play it x12, but on the 
time you play this...

G -------------------------------------|
D -------------------------------------|
A ---7-7---7---7-0-3-5-5---5---5-0-2-3-|
E -------------------------------------|

then on the next bit you play...

G *-----------------------------------------------------------------|
D *-----------------------------------------------------------------|
A *-----------------------------------------------------------------|
E *-0-0-0-0-0-0-0-0-3-2-3-2-3-2-3-2-0-0-0-0-0-0-0-0-3-2-3-2-3-2-3-2-|

G ----------------------------------------------*
D ----------------------------------------------*
A ----------------------------------------------*
E -0-0-0-0-0-0-0-3--3-3-3-3-3-3-5--5-5-5-5-5-5-5*

x2. then it is the solo. in the solo you play the intro tune x4. there is anoter verse 
you play the same as what you play in the other verses.then you play the part in the 
(above)until the end of the song.
            
Submit corrections


        Hey You lessons Hard to play? Try these video lessons and learn fast Hey You lessons
        
↑ Back to top | Tablatures and chords for acoustic guitar and electric guitar, ukulele, drums are parodies/interpretations of the original songs. You may use it for private study, scholarship, research or language learning purposes only