» » »

Scorpions - Does Anyone Know Tabs

Artists:  A B C D E F G H I J K L M N O P Q R S T U V W X Y Z # 

Does Anyone Know Tabs

(ver. 2) Click to play this song!
Scorpions
 Rating:
4.3/5 (22 votes)

 Does Anyone Know lessons Tabs too difficult? Try these video lessons and learn fast
 
                e|-----------------------------------------------------------------8--------|
B|--------------------------------------------------------------------------|
G|------------------------------5------5--7--7b9b7p5------5---7b9----7b9-7b9|
D|---------------5-----5----7-------7-----------------7---------------------|
A|---------5--7-----7-------------------------------------------------------|
E|----5--8------------------------------------------------------------------|

e|--------------------------------------------------------------------------|
B|--------------------------------------------------------------------------|
G|-br7p5h7-----5h7p5\4---4--------------------------------------------------|
D|---------------------------0----------------------------------------------|
A|-------------------------------3----3/5-----------------------------------|
E|--------------------------------------------------------------------------|

e|------5--7--8------8--------------------------15--------------------15--------------------------------|
B|---5-----------8b10------5h6--------------15--------15b17--------15b17----15b17br15p13-----15---15b17-|
G|-----------------------------7-------14---------------------------------------------------------------|
D|------------------------------------------------------------------------------------------------------|
A|------------------------------------------------------------------------------------------------------|
E|------------------------------------------------------------------------------------------------------|

e|-----12h13-------------------------------12h13---------17-------------------------|
B|-------------15--13--12--------------12----------15----------15--15b17br15p13--15-|
G|--------------------------------13------------------------------------------------|
D|----------------------------14----------------------------------------------------|
A|----------------------------------------------------------------------------------|
E|----------------------------------------------------------------------------------|

e|--------------------------------------------5-----------------------------|
B|--13--12h13---------------8b10--8b10~-----------8p5--8p5-----5------------|
G|--------------14~-----------------------------------------7-----7p5---7b9-|
D|--------------------------------------------------------------------------|
A|--------------------------------------------------------------------------|
E|--------------------------------------------------------------------------|

e|--------------------------------------------------------------------------|
B|--------------------------------------------------------------------------|
G|----7b9br7p5--------------------------------------------------------------|
D|-------------------7---5~-------------------------------------------------|
A|--------------------------------------------------------------------------|
E|--------------------------------------------------------------------------|
            
Submit corrections


        Does Anyone Know lessons Hard to play? Try these video lessons and learn fast Does Anyone Know lessons
        
↑ Back to top | Tablatures and chords for acoustic guitar and electric guitar, ukulele, drums are parodies/interpretations of the original songs. You may use it for private study, scholarship, research or language learning purposes only