» » »

Scorpions - Catch Your Train Tabs

Artists:  A B C D E F G H I J K L M N O P Q R S T U V W X Y Z # 

Catch Your Train Tabs

(ver. 3) Click to play this song!
Scorpions
 Rating:
2.7/5 (27 votes)
    Catch Your Train lessons Tabs too difficult? Try these video lessons and learn fast
                 Intro
  Q=162
  A
 4/4
  Gtr I (El. Gtr. w/ dist. / 1/2 step down: Eb Ab Db Gb Bb Eb)
   W                        +W
|------------------------|--------------------|
|------------------------|--------------------|
|-12b14==================|=(12)---------------|
|------------------------|--------------------|
|------------------------|--------------------|
|------------------------|--------------------|
|
| Gtr II (El. Gtr. w/ dist. / 1/2 step down: Eb Ab Db Gb Bb Eb)
|  Q       E E E  E E  E    +Q    E E E  E Q
|--9-------9------9----9-|--(9)---9------9----|
|-10------10-----10---10-|-(10)--10-----10----|
|--9-------9------9----9-|--(9)---9------9----|
|------------------------|--------------------|
|------------------------|--------------------|
|------------------------|--------------------|


       A7
    ~~~~
   +W                   +W
|--------------------|--------------------|
|--------------------|--------------------|
|-(12)---------------|-(12)r==============|
|--------------------|--------------------|
|--------------------|--------------------|
|--------------------|--------------------|
|
|   E  E E E E E E E     E  E E E E E E E
|------9-9-9-9-9-9---|------9-9-9-9-9-9---|
|------8-8-8-8-8-8---|------8-8-8-8-8-8---|
|------9-9-9-9-9-9---|------9-9-9-9-9-9---|
|--------------------|--------------------|
|--------------------|--------------------|
|--------------------|--------------------|


  A
    ~~~~~~~~~~~~~~~~~~~~~~~~~~~~~~~~~~~~~~~~~
   +W                     +W
|----------------------|--------------------|
|----------------------|--------------------|
|-(12)-----------------|-(12)---------------|
|----------------------|--------------------|
|----------------------|--------------------|
|----------------------|--------------------|
|
|   Q    E E E  E E  E    +Q    E E E  E Q
|---9----9------9----9-|--(9)---9------9----|
|--10---10-----10---10-|-(10)--10-----10----|
|---9----9------9----9-|--(9)---9------9----|
|----------------------|--------------------|
|----------------------|--------------------|
|----------------------|--------------------|


       A7
 ~~~~~~
   +W                   H            +E   +S  S  E  E
|--------------------|---------------------------------|
|--------------------|---------------------------------|
|-(12)---------------|-11b12========(11)r(11)p8-10-----|
|--------------------|-----------------------------10s=|
|--------------------|---------------------------------|
|--------------------|---------------------------------|
|
|   E  E E E E E E E    E     E E E   E    E     E  E
|------9-9-9-9-9-9---|--------9-9-9---9----9-----9-----|
|------8-8-8-8-8-8---|--------8-8-8---8----8-----8-----|
|------9-9-9-9-9-9---|--------9-9-9---9----9-----9-----|
|--------------------|---------------------------------|
|--------------------|---------------------------------|
|--------------------|---------------------------------|


  A
   ~~~~~~~~~~~~~~~~~~~~~~~~~~~~~~~~~~~~~~~~
   W                    +W
|--------------------|--------------------|
|--------------------|--------------------|
|--------------------|--------------------|
|-14-----------------|-(14)---------------|
|--------------------|--------------------|
|--------------------|--------------------|
|
|  Q   E E E  E E  E    +Q    E E E  E Q
|--9---9------9----9-|--(9)---9------9----|
|-10--10-----10---10-|-(10)--10-----10----|
|--9---9------9----9-|--(9)---9------9----|
|--------------------|--------------------|
|--------------------|--------------------|
|--------------------|--------------------|


       A7
 ~~~~~~
   +W                   +H.            Q
|--------------------|-----------------------|
|--------------------|-----------------------|
|--------------------|-----------------------|
|-(14)---------------|-(14)\-----------------|
|--------------------|-----------------------|
|--------------------|-----------------x/----|
|
|   E  E E E E E E E     E   E E E E E E  E
|------9-9-9-9-9-9---|-------9-9-9-9-9-9-----|
|------8-8-8-8-8-8---|-------8-8-8-8-8-8-----|
|------9-9-9-9-9-9---|-------9-9-9-9-9-9-----|
|--------------------|-----------------------|
|--------------------|-----------------------|
|--------------------|-----------------------|


  A
                                                         ~~~~~~~
                     |--3--|                 |--3--|
   S  S  S  S  S  S  S  S  S  S  S  S  S  E  S  S  S     Q.         E  +Q.       +S   +S
|----------------------------------------------------|------------------------------------|
|-------------14-15----14-15-17-14-15-17-19-17-19-20-|--20b22======20-(20)------(20)r(20)-|
|----14-16-17-------16-------------------------------|------------------------------------|
|-17-------------------------------------------------|------------------------------------|
|----------------------------------------------------|------------------------------------|
|----------------------------------------------------|------------------------------------|
|
|  Q           E     E        E     E     E  E          +Q       E  E   E   E Q
|--9-----------9--------------------9--------9-------|--(9)------9----------9-------------|
|-10----------10-------------------10-------10-------|-(10)-----10---------10-------------|
|--9-----------9--------------------9--------9-------|--(9)------9----------9-------------|
|----------------------------------------------------|------------------------------------|
|----------------------------------------------------|------------------------------------|
|----------------------------------------------------|------------------------------------|


        A7
                              |---3---|  |---3---|  |---3---|  |---3---|
   Q.        E  +Q.      E    E  E    E  E  E    E  E  E    E  E  E    E
|-21b22-----21-(21)--------|-19------19----------------------------------||
|-----------------------20-|----20------20-19---17-20-17---19-17---------||
|--------------------------|-------------------------------------19s==18-||
|--------------------------|---------------------------------------------||
|--------------------------|---------------------------------------------||
|--------------------------|---------------------------------------------||
|
|  E    E E  E   E  E E  E    E    E     E    E     E    E     E    E
|-------9-9--9---9--9-9----|-------9-----9----9-----9----9-----9---------||
|-------8-8--8---8--8-8----|-------8-----8----8-----8----8-----8---------||
|-------9-9--9---9--9-9----|-------9-----9----9-----9----9-----9---------||
|--------------------------|---------------------------------------------||
|--------------------------|---------------------------------------------||
|--------------------------|---------------------------------------------||


 1st Verse
  A                        F
   ~~
   W           W           W           W
|-----------|------------|----------|--------|
|-----------|------------|----------|--------|
|-16--------|------------|----------|--------|
|-----------|------------|----------|--------|
|-----------|------------|----------|--------|
|-----------|------------|----------|--------|
|
|  W          +W           W          +W
|--5--------|-(5)--------|-1--------|-(1)----|
|--5--------|-(5)--------|-1--------|-(1)----|
|--6--------|-(6)--------|-2--------|-(2)----|
|--7--------|-(7)--------|-3--------|-(3)----|
|-----------|------------|----------|--------|
|-----------|------------|----------|--------|


  A
   ~~~~~~
                                           |-------3--------|
   W                        +Q     Q       Q        Q       Q
|------------------------|---------------------------------------|
|------------------------|---------------------------------------|
|-12b14==================|=(12)r--12b14---12b14----12b14---12b14-|
|------------------------|---------------------------------------|
|------------------------|---------------------------------------|
|------------------------|---------------------------------------|
|
|  Q       E E E  E E  E    +Q     E    E  E     E       Q
|--9-------9------9----9-|--(9)----9-------------9---------------|
|-10------10-----10---10-|-(10)---10------------10---------------|
|--9-------9------9----9-|--(9)----9-------------9---------------|
|------------------------|---------------------------------------|
|------------------------|---------------------------------------|
|------------------------|---------------------------------------|


        A7
                   |---3---|    |---3---|  |---3---|  |---3---|
   H.              E  E    E    E  E    E  E  E    E  E  E    E  Q
|----------------------------|-----------------------------------------|
|----------------------------|-----------------------------------------|
|-14b16-----------12---------|-----------------------------------------|
|--------------------14---13-|-14-13---14-13p12p==10-12-10------10-----|
|----------------------------|-------------------------------12--------|
|----------------------------|-----------------------------------------|
|
|  E    E E E E E  E    E       E    E     E    E     E    E     E E
|-------9-9-9-9-9--9---------|-------9-----9----9-----9----9-----9-----|
|-------8-8-8-8-8--8---------|-------8-----8----8-----8----8-----8-----|
|-------9-9-9-9-9--9---------|-------9-----9----9-----9----9-----9-----|
|----------------------------|-----------------------------------------|
|----------------------------|-----------------------------------------|
|----------------------------|-----------------------------------------|


  A                         F
   ~~
   W           +W           W           W
|-----------|-------------|----------|--------|
|-----------|-------------|----------|--------|
|-----------|-------------|----------|--------|
|-----------|-------------|----------|--------|
|-12--------|-(12)--------|----------|--------|
|-----------|-------------|----------|--------|
|
|  W           +W           W          +W
|--5--------|--(5)--------|-1--------|-(1)----|
|--5--------|--(5)--------|-1--------|-(1)----|
|--6--------|--(6)--------|-2--------|-(2)----|
|--7--------|--(7)--------|-3--------|-(3)----|
|-----------|-------------|----------|--------|
|-----------|-------------|----------|--------|


  A
   W                        +W
|------------------------|--------------------|
|------------------------|--------------------|
|--9b12==================|==(9)---------------|
|------------------------|--------------------|
|------------------------|--------------------|
|------------------------|--------------------|
|
|  Q       E E E  E E  E    +Q    E E E  E Q
|--9-------9------9----9-|--(9)---9------9----|
|-10------10-----10---10-|-(10)--10-----10----|
|--9-------9------9----9-|--(9)---9------9----|
|------------------------|--------------------|
|------------------------|--------------------|
|------------------------|--------------------|


      A7                              G
   ~~~
  +W                  +H         H
|-------------------|---------------------||
|-------------------|---------------------||
|-(9)---------------|-(9)r----------------||
|-------------------|---------------------||
|-------------------|---------------------||
|-------------------|------------x\-------||
|
|  E  E E E E E E E    E   E E E Q.    E
|-----9-9-9-9-9-9---|------9-9-9------10--||
|-----8-8-8-8-8-8---|------8-8-8------12--||
|-----9-9-9-9-9-9---|------9-9-9------12--||
|-------------------|---------------------||
|-------------------|---------------------||
|-------------------|------------x\-------||


   Chorus
    G                  A                      G
      ~~~~
      Q.     Q.      Q        W
||------------------------|----------------------|
||o-----------------------|----------------------|
||------------------------|----------------------|
||------------------------|----------------------|
||o-(10)------------------|----------------------|
||------------------------|----------------------|
|
|    +Q    E E  E  E E  E    +Q    E E E  E E  E
||--(10)--10------10----9-|--(9)---9------9---10-|
||o-(12)--12------12---10-|-(10)--10-----10---12-|
||--(12)--12------12----9-|--(9)---9------9---12-|
||------------------------|----------------------|
||o-----------------------|----------------------|
||------------------------|----------------------|


                    A                      F
    W                      W
|----------------------|---------------------|
|----------------------|---------------------|
|----------------------|---------------------|
|----------------------|---------------------|
|----------------------|---------------------|
|----------------------|---------------------|
|
|  +Q    E E E  E E  E    +Q    E E E  E E E
|-(10)--10-----10----9-|--(9)---9------9---5-|
|-(12)--12-----12---10-|-(10)--10-----10---6-|
|-(12)--12-----12----9-|--(9)---9------9---5-|
|----------------------|---------------------|
|----------------------|---------------------|
|----------------------|---------------------|


                 E                  A
  Gtr II
  +Q   E E E E E E   +Q   E E E E E  E
|-(5)--5-----5---4-|-(4)--4-----4----9-|
|-(6)--6-----6---5-|-(5)--5-----5---10-|
|-(5)--5-----5---4-|-(4)--4-----4----9-|
|------------------|-------------------|
|------------------|-------------------|
|------------------|-------------------|


                                            G
   +Q    E E E  E E  E   E  E E  E  E  E  E  E
|--(9)---9------9----9-|----9----9--9--9--9-10--|
|-(10)--10-----10---10-|---10---10-10-10-10-12--|
|--(9)---9------9----9-|----9----9--9--9--9-12--|
|----------------------|------------------------|
|----------------------|------------------------|
|----------------------|------------------------|


                    A                      G
   +Q    E E E  E E  E    +Q    E E E  E E  E
|-(10)--10-----10----9-|--(9)---9------9---10-|
|-(12)--12-----12---10-|-(10)--10-----10---12-|
|-(12)--12-----12----9-|--(9)---9------9---12-|
|----------------------|----------------------|
|----------------------|----------------------|
|----------------------|----------------------|


                    A                      F
   +Q    E E E  E E  E    +Q    E E E  E E E
|-(10)--10-----10----9-|--(9)---9------9---5--|
|-(12)--12-----12---10-|-(10)--10-----10---6--|
|-(12)--12-----12----9-|--(9)---9------9---5--|
|----------------------|----------------------|
|----------------------|----------------------|
|----------------------|----------------------|


                    1.
                 E
  Gtr I
   W                  W
|------------------|-------------------|
|------------------|-------------------|
|------------------|-------------------|
|------------------|-------------------|
|------------------|-------------------|
|------------------|-------------------|
|
| Gtr II
| +Q   E E E E E E   +E  E E E E E E E
|-(5)--5-----5---4-|-(4)-4-4-4-4-4-4-4-|
|-(6)--6-----6---5-|-(5)-5-5-5-5-5-5-5-|
|-(5)--5-----5---4-|-(4)-4-4-4-4-4-4-4-|
|------------------|-------------------|
|------------------|-------------------|
|------------------|-------------------|


                Interlude
                 A
  W               W
|-------------||-------------------------|
|-------------||-------------------------|
|-------------||-12b14===================|
|-------------||-------------------------|
|-------------||-------------------------|
|-------------||-------------------------|
|
| E E Q  H        Q       E E E  E E  E
|-4-----------||--9-------9------9----9--|
|-5-----------||-10------10-----10---10--|
|-4-----------||--9-------9------9----9--|
|-------------||-------------------------|
|-------------||-------------------------|
|-------------||-------------------------|


                            A7
    ~~~~~~~~~~~~~~~~~~~~~~~~~~~~~~~~~~~~~~~~~~~~~~
   +W                   +W                   +H.            Q
|--------------------|--------------------|---------------------|
|--------------------|--------------------|---------------------|
|-(12)---------------|-(12)---------------|-(12)r---------------|
|--------------------|--------------------|-----------------x---|
|--------------------|--------------------|---------------------|
|--------------------|--------------------|---------------------|
|
|  +Q    E E E  E Q      E  E E E E E E E     E   E E E E E E E
|--(9)---9------9----|------9-9-9-9-9-9---|-------9-9-9-9-9-9---|
|-(10)--10-----10----|------8-8-8-8-8-8---|-------8-8-8-8-8-8---|
|--(9)---9------9----|------9-9-9-9-9-9---|-------9-9-9-9-9-9---|
|--------------------|--------------------|---------------------|
|--------------------|--------------------|---------------------|
|--------------------|--------------------|---------------------|


  A
   S  S  S  S  S  S  S  S  S  S  S  S  S  S  S  S
|-------------------14-15-17-15-14----------------|
|----------14-15-17----------------17-15-14-------|
|----14-16----------------------------------16-14-|
|-17----------------------------------------------|
|-------------------------------------------------|
|-------------------------------------------------|
|
|  Q           E     E     E     E     E     E
|--9-----------9-----------------9-----------9----|
|-10----------10----------------10----------10----|
|--9-----------9-----------------9-----------9----|
|-------------------------------------------------|
|-------------------------------------------------|
|-------------------------------------------------|


    E   E  E      +E   +E   Q    E
|----------------------------------|
|------14-14b15==(14)r(14)---------|
|--16----------------------12---11-|
|----------------------------------|
|----------------------------------|
|----------------------------------|
|
|  +Q      E       E    E   E Q
|--(9)-----9----------------9------|
|-(10)----10---------------10------|
|--(9)-----9----------------9------|
|----------------------------------|
|----------------------------------|
|----------------------------------|


      A7
   Q.      E E  E  E E   E  E  E  E  +Q     Q
|----------------------|------------------------||
|----------------------|------------------------||
|-12------11-9-11-11-9-|-9s11-11----------------||
|----------------------|---------11-(11)--------||
|----------------------|-------------------12---||
|----------------------|------------------------||
|
|  E  E E  E E  E  E E   E  E  E  E   E  E  E E
|-----9-9--9-9--9--9---|----9--9--9---9--9--9---||
|-----8-8--8-8--8--8---|----8--8--8---8--8--8---||
|-----9-9--9-9--9--9---|----9--9--9---9--9--9---||
|----------------------|------------------------||
|----------------------|------------------------||
|----------------------|------------------------||


 2nd Verse
  A                           F
                  ~~~~
   +W            +W           W           W
|-------------|-------------|----------|--------|
|-------------|-------------|----------|--------|
|-------------|-------------|----------|--------|
|-------------|-------------|----------|--------|
|-(12)--------|-(12)--------|----------|--------|
|-------------|-------------|----------|--------|
|
|   W            +W           W          +W
|---5---------|--(5)--------|-1--------|-(1)----|
|---5---------|--(5)--------|-1--------|-(1)----|
|---6---------|--(6)--------|-2--------|-(2)----|
|---7---------|--(7)--------|-3--------|-(3)----|
|-------------|-------------|----------|--------|
|-------------|-------------|----------|--------|


  A                                           A7
  Gtr II
   Q   E E E  E E  E    +Q    E E E  E Q    E E E E E E E E   E E E E E E E E
|--9---9------9----9-|--(9)---9------9----|---9-9-9-9-9-9---|---9-9-9-9-9-9----|
|-10--10-----10---10-|-(10)--10-----10----|---8-8-8-8-8-8---|---8-8-8-8-8-8----|
|--9---9------9----9-|--(9)---9------9----|---9-9-9-9-9-9---|---9-9-9-9-9-9----|
|--------------------|--------------------|-----------------|------------------|
|--------------------|--------------------|-----------------|------------------|
|--------------------|--------------------|-----------------|------------------|


  A                       F
  Gtr I
  W           W           W           W
|----------|------------|----------|------------|
|----------|------------|----------|------------|
|----------|------------|----------|------------|
|----------|------------|----------|------------|
|----------|------------|----------|------------|
|----------|------------|----------|------------|
|
| Gtr II
| W          +W           W          +W
|-5--------|-(5)--------|-1--------|-(1)--------|
|-5--------|-(5)--------|-1--------|-(1)--------|
|-6--------|-(6)--------|-2--------|-(2)--------|
|-7--------|-(7)--------|-3--------|-(3)--------|
|----------|------------|----------|------------|
|----------|------------|----------|------------|


  A
   S      +S   +S   S  S  S  S  S  S      +S   +S   S  S  S  S  S
|-14b15==(14)r(14)p12-14p12----12-14b15==(14)r(14)p12-14p12----12--|
|---------------------------16------------------------------16-----|
|------------------------------------------------------------------|
|------------------------------------------------------------------|
|------------------------------------------------------------------|
|------------------------------------------------------------------|
|
|  Q                   E     E     E            E      E     E
|--9-------------------9------------------------9------------9-----|
|-10------------------10-----------------------10-----------10-----|
|--9-------------------9------------------------9------------9-----|
|------------------------------------------------------------------|
|------------------------------------------------------------------|
|------------------------------------------------------------------|


    S      +S   +S   S  S  S  S  S  S  S  S  S  S  S  S  S
|--14b15==(14)r(14)p12-14p12----12----------15-17-15-------|
|----------------------------16----15h16h17----------17-16-|
|----------------------------------------------------------|
|----------------------------------------------------------|
|----------------------------------------------------------|
|----------------------------------------------------------|
|
|  +Q                   E     E     E     E     Q
|--(9)------------------9-----------------9----------------|
|-(10)-----------------10----------------10----------------|
|--(9)------------------9-----------------9----------------|
|----------------------------------------------------------|
|----------------------------------------------------------|
|----------------------------------------------------------|


     A7
                                                                      ~~               ~~
   S  S  S  S  S  S  S  S  S  S  S  S  S      +S   +E     S  S  S  S  Q    S  S  S  S  Q
|------------------------------------------------------|--------------------------------------||
|-15h16h17-15-16-15-------15---------------------------|-------------------------------------o||
|-------------------17-14----12-14-13-12b14==(12)r(12)-|-14-12--------------------------------||
|------------------------------------------------------|-------14-13-12---12-10---------------||
|------------------------------------------------------|------------------------12-11-10-----o||
|------------------------------------------------------|--------------------------------------||
|
|  E     E     E     E     E     E     E            E     E     E     E E  E     E     E  E
|--------9-----9-----9-----9-----9-----9---------------|--------9-----9-9--9-----9-----9-10---||
|--------8-----8-----8-----8-----8-----8---------------|--------8-----8-8--8-----8-----8-12--o||
|--------9-----9-----9-----9-----9-----9---------------|--------9-----9-9--9-----9-----9-12---||
|------------------------------------------------------|--------------------------------------||
|------------------------------------------------------|-------------------------------------o||
|------------------------------------------------------|--------------------------------------||


                       Guitar Break
  2.
  E         G5 F5       Em
   W                    H        H
|--------------------||---------15b18------|
|--------------------||--------------------|
|--------------------||--------------------|
|--------------------||--------------------|
|--------------------||--------------------|
|--------------------||-0------------------|
|
|  E  E E E  E  Q.      E E E E  E    E Q
|-(4)-4-4------------||-7-7-7-7--7---------|
|-(5)-5-5------------||-8-8-8-8--8---------|
|-(4)-4-4------------||-9-9-9-9--9---------|
|-----------12-10----||-9-9-9-9--9---------|
|-----------10--8----||-7-7-7-7--7---------|
|--------------------||--------------------|


              G5 F5            Em
                     ~~
   |--3--|  |--3--|
   E  E  E  E  E  E  H         H        Q.        E
|-15-12-12-------------------|---------21b24-----21b23--|
|----------15----------------|--------------------------|
|-------------15-14-12-------|--------------------------|
|----------------------------|--------------------------|
|----------------------------|--------------------------|
|----------------------------|-0------------------------|
|
|  H                 E  Q.     E E E E  E    E Q
|----------------------------|-7-7-7-7--7---------------|
|----------------------------|-8-8-8-8--8---------------|
|----------------------------|-9-9-9-9--9---------------|
|-------------------12-10----|-9-9-9-9--9---------------|
|-------------------10--8----|-7-7-7-7--7---------------|
|----------------------------|--------------------------|


        G5                F5
   |-----3-----|
   Q     Q     Q     H
|-21b24-21b24-21b24-21b24-------|
|-------------------------------|
|-------------------------------|
|-------------------------------|
|-------------------------------|
|-------------------------------|
|
|  H                 E     Q.
|-------------------------------|
|-------------------------------|
|-------------------------------|
|-------------------12----10----|
|-------------------10-----8----|
|-------------------------------|


  Em                                         E5 D5
                                                    ~~
            |---3---|  |--3--|    |--3--|  |--3--|
  H         E  E    E  E  E  E    E  E  E  E  E  E  H
|---------/17------------------|----------------------------|
|-------------17---15-12p11-15-|-12-11----------------------|
|------------------------------|-------14-12----14-12-------|
|------------------------------|-------------14-------------|
|------------------------------|----------------------------|
|-0----------------------------|----------------------------|
|
| E E E E   E    E     Q          H                 E Q.
|-7-7-7-7---7------------------|----------------------------|
|-8-8-8-8---8------------------|----------------------------|
|-9-9-9-9---9------------------|----------------------------|
|-9-9-9-9---9------------------|--------------------9-7-----|
|-7-7-7-7---7------------------|--------------------7-5-----|
|------------------------------|----------------------------|


  F
   S  S  S  S  S  S  S  S  S  S  S  S  S  S  S  S
|-------------------------------------------------|
|----12-13-14-15-14-13-12----13-14-15-16-15-14-13-|
|-15----------------------16----------------------|
|-------------------------------------------------|
|-------------------------------------------------|
|-------------------------------------------------|
|
|  E     E     E     E     E     E     Q
|-------------------------------------------------|
|-10----10----10----10----10----------------------|
|-10----10----10----10----10----------------------|
|-10----10----10----10----10----------------------|
|--8-----8-----8-----8-----8----------------------|
|-------------------------------------------------|


  G
   S  S  S  S  S  S  S  S  S  S  S  S  S  S  S  S
|--------------------------------------------------||
|----14-15-16-17-16-15-14----15-16-17-18-17-16-15--||
|-17----------------------18-----------------------||
|--------------------------------------------------||
|--------------------------------------------------||
|--------------------------------------------------||
|
|  E     E     E     E     E     E     Q
|--------------------------------------------------||
|-12----12----12----12----12-----------------------||
|-12----12----12----12----12-----------------------||
|-12----12----12----12----12-----------------------||
|-10----10----10----10----10-----------------------||
|--------------------------------------------------||


 Guitar Solo
  A                                          G         A
   Q.      E    +E    Q      E     E  Q    E +E   Q     E
|------------------------------|---9--9----9-(9)--9-----7-|
|--7b9-----7b9==(7)r--7b9----7-|-----------8-(8)--8-------|
|--7b9-----7b9==(7)r--7b9----7-|--------------------------|
|------------------------------|--------------------------|
|------------------------------|--------------------------|
|------------------------------|--------------------------|
|
|  Q     E E     E    E   E  E    +Q     E E  E   E  E  E
|--9-----9------------9------9-|--(9)----9---10--10-10--9-|
|-10----10-----------10-----10-|-(10)---10---12--12-12-10-|
|--9-----9------------9------9-|--(9)----9---12--12-12--9-|
|------------------------------|--------------------------|
|------------------------------|--------------------------|
|------------------------------|--------------------------|


    S   S  S  S  S  S  S  S  S  S  S  S  S  S  S  S
|-/15--12-------12----------------------------------|
|---------15-14----15-14-12-15-14-12----14-12-------|
|------------------------------------14-------14p12-|
|---------------------------------------------------|
|---------------------------------------------------|
|---------------------------------------------------|
|
|  +Q            E     E     E     E     E     E
|--(9)-----------9-----------------9-----------9----|
|-(10)----------10----------------10----------10----|
|--(9)-----------9-----------------9-----------9----|
|---------------------------------------------------|
|---------------------------------------------------|
|---------------------------------------------------|


                         G                 A
    S   S  S  S  S  S  E  S  S  S  S  S  S  S  S
|------------------------------------------------|
|--12--------------------------------------------|
|------14-12-11-14-12-11-12-11-------11----------|
|------------------------------14-12----14-12-11-|
|------------------------------------------------|
|------------------------------------------------|
|
|  +Q            E     E  E     E     E     E
|--(9)-----------9-------10----10----10-----9----|
|-(10)----------10-------12----12----12----10----|
|--(9)-----------9-------12----12----12-----9----|
|------------------------------------------------|
|------------------------------------------------|
|------------------------------------------------|


                                                                  G        A
                                                  ~~~~
   S  S  S  S  S  S S  S  S  S  S  S  S  S  E     Q    S  S  S  S  E  Q     S  S
|---------------------------------------------|----------------------------------|
|---------------------------------------------|----------------------------------|
|---------------------------------------11-14-|--12---11-12p11----11-------12h14-|
|-14-12-13---------------------11-12-14-------|----------------14----14----------|
|----------14-12s10-9-10-12-14----------------|----------------------------------|
|---------------------------------------------|----------------------------------|
|
|  Q           E    E     E     E     E     E    +Q    E     E     E  E  E  E
|--9-----------9----------------9-----------9-|--(9)---9----------10-10-10--9----|
|-10----------10---------------10----------10-|-(10)--10----------12-12-12-10----|
|--9-----------9----------------9-----------9-|--(9)---9----------12-12-12--9----|
|---------------------------------------------|----------------------------------|
|---------------------------------------------|----------------------------------|
|---------------------------------------------|----------------------------------|


           |---3---|  |---3----|  |---3----|
    E   E  E  E    E  E  E     E  E  E     E
|-----------------------12h===15-14-------12-|
|--12h=15-14------12-15-------------15-------|
|------------14------------------------------|
|--------------------------------------------|
|--------------------------------------------|
|--------------------------------------------|
|
|  +Q      E    E     E     E     E     E
|--(9)-----9----------------9-----------9----|
|-(10)----10---------------10----------10----|
|--(9)-----9----------------9-----------9----|
|--------------------------------------------|
|--------------------------------------------|
|--------------------------------------------|


                C5         D5
                                                 ~~~
    |--3---|  |---3---|  |---3---|  |---3---|
    E   E  E  E  E    E  E  E    E  E  E    E    H         S   S  S  S  S  S  S  S
|--17--14-12------------12--------------------|------------------------------------|
|------------15-14---12----15p==14p12---------|------------------12h15p12----------|
|-------------------------------------14---12-|-11-------(12)h14----------14p12p11-|
|---------------------------------------------|------------------------------------|
|---------------------------------------------|------------------------------------|
|---------------------------------------------|------------------------------------|
|
|  +Q         E    E     E    E     E    E      +Q   E E   E      E     E     E
|--(9)--------9-------------------------------|------------------------------------|
|-(10)-------10-------------------------------|------------------------------------|
|--(9)--------9-------------------------------|------------------------------------|
|------------------------5----5-----5----7----|-(7)--7------------7-----------7----|
|------------------------3----3-----3----5----|-(5)--5------------5-----------5----|
|---------------------------------------------|------------------------------------|


                           C5              D5
   S   S  S  S  S  S  S  S  S  S  E  Q
|-----------------------------------17b18====|
|--------------------12h13-------------------|
|-----------11-12h14-------14p12-14----------|
|-14p=12-14----------------------------------|
|--------------------------------------------|
|--------------------------------------------|
|
| +Q            E     E     E     E  E     E
|--------------------------------------------|
|--------------------------------------------|
|--------------------------------------------|
|-(7)-----------7-----------5-----5--5-----7-|
|-(5)-----------5-----------3-----3--3-----5-|
|--------------------------------------------|


                                                           F5          G5
                 |---3---|  |---3---|    |--3---|
   +Q    +E   E  E  E    E  E  E    E    E   E  E  Q        +E    Q.
|-(17)r=(17)-17-15-19---15-19-15------|--------------------------17\-----|
|----------------------------------17-|-20--17-19-20b22====(20)r---------|
|-------------------------------------|----------------------------------|
|-------------------------------------|----------------------------------|
|-------------------------------------|----------------------------------|
|-------------------------------------|----------------------------------|
|
|  +Q     E   E  E    E     E    E      +Q         E     E   E    E  E E
|-------------------------------------|----------------------------------|
|-------------------------------------|----------------------------------|
|-------------------------------------|----------------------------------|
|--(7)----7-----------7----------7----|-(7)--------7---------------------|
|--(5)----5-----------5----------5----|-(5)--------5---------3----3--3-5-|
|-------------------------------------|----------------------1----1--1-3-|


    |--3---|  |---3---|  |---3---|  |---3---|
    E   E  E  E  E    E  E  E    E  E  E    E
|-/15----------------12-16-----------------13-|
|---------------14--------------------15------|
|---------12-15-----------------13-16---------|
|------14------------------15-----------------|
|---------------------------------------------|
|---------------------------------------------|
|
|  +Q         E    E     E    E     E    E
|---------------------------------------------|
|---------------------------------------------|
|---------------------------------------------|
|---------------------------------------------|
|--(5)--------5---------------5----------5----|
|--(3)--------3---------------3----------3----|


                                                                               G
                                                     ~~~~~~~~~~~~~~~~~~
   |--3---|  |---3---|  |---3---|  |---3---|
   E   E  E  E  E    E  E  E    E  E  E    E        +W            +H      H
|-17----------------14-18-----------------21b24==|=(21)--------|-(21)r------------||
|--------------16--------------------17----------|-------------|------------------||
|--------14-17-----------------15-18-------------|-------------|------------------||
|-----16------------------17---------------------|-------------|------------------||
|------------------------------------------------|-------------|------------------||
|------------------------------------------------|-------------|------------------||
|
| +Q         E    E     E    E     E    E           +W            +H.        E  E
|------------------------------------------------|-------------|---------------10-||
|------------------------------------------------|-------------|---------------12-||
|------------------------------------------------|-------------|---------------12-||
|------------------------------------------------|-------------|------------------||
|-(5)--------5----------3----3-----3----2--------|--(2)--------|--(2)-------------||
|-(3)--------3----------1----1-----1----0--------|--(0)--------|--(0)-------------||


   Out-Chorus
    G                 A                      G
    Gtr II
     +Q    E E E  E E  E    +Q    E E E  E E  E
||--(10)--10-----10----9-|--(9)---9------9---10-|
||o-(12)--12-----12---10-|-(10)--10-----10---12-|
||--(12)--12-----12----9-|--(9)---9------9---12-|
||-----------------------|----------------------|
||o----------------------|----------------------|
||-----------------------|----------------------|


                    A                      F
   +Q    E E E  E E  E    +Q    E E E  E E E
|-(10)--10-----10----9-|--(9)---9------9---5-|
|-(12)--12-----12---10-|-(10)--10-----10---6-|
|-(12)--12-----12----9-|--(9)---9------9---5-|
|----------------------|---------------------|
|----------------------|---------------------|
|----------------------|---------------------|


                 E                  A
  Gtr I
                                                     |---3----|  |-----3-----|
   W                  W                    H         E  E     E  E     E     E
|------------------|-------------------|------------17----------------------17-|
|------------------|-------------------|---------------20----17-------17-------|
|------------------|-------------------|------------------------19b21----------|
|------------------|-------------------|---------------------------------------|
|------------------|-------------------|---------------------------------------|
|------------------|-------------------|---------------------------------------|
|
| Gtr II
| +Q   E E E E E E   +Q   E E E E E  E    +Q    E E  E     E     E        E
|-(5)--5-----5---4-|-(4)--4-----4----9-|--(9)---9----------9--------------9----|
|-(6)--6-----6---5-|-(5)--5-----5---10-|-(10)--10---------10-------------10----|
|-(5)--5-----5---4-|-(4)--4-----4----9-|--(9)---9----------9--------------9----|
|------------------|-------------------|---------------------------------------|
|------------------|-------------------|---------------------------------------|
|------------------|-------------------|---------------------------------------|


                                                    G
   |-----3-----|  |-----3-----|
   E     E     E  E     E     E  S      E.     +E    E
|-------17----17-------17----17-20b24==20-----(20)r------|
|-20b22----------20b22-----------------------------------|
|--------------------------------------------------------|
|--------------------------------------------------------|
|--------------------------------------------------------|
|--------------------------------------------------------|
|
|  E        E     E        E     E          E   E    E
|--9--------9-----9--------9-----9----------9---9---10---|
|-10-------10----10-------10----10---------10--10---12---|
|--9--------9-----9--------9-----9----------9---9---12---|
|--------------------------------------------------------|
|--------------------------------------------------------|
|--------------------------------------------------------|


                    A                      G
  Gtr II
   +Q    E E E  E E  E    +Q    E E E  E E  E
|-(10)--10-----10----9-|--(9)---9------9---10-|
|-(12)--12-----12---10-|-(10)--10-----10---12-|
|-(12)--12-----12----9-|--(9)---9------9---12-|
|----------------------|----------------------|
|----------------------|----------------------|
|----------------------|----------------------|


                    A                      F
   +Q    E E E  E E  E    +Q    E E E  E E E
|-(10)--10-----10----9-|--(9)---9------9---5--|
|-(12)--12-----12---10-|-(10)--10-----10---6--|
|-(12)--12-----12----9-|--(9)---9------9---5--|
|----------------------|----------------------|
|----------------------|----------------------|
|----------------------|----------------------|


                    1.
                 E                  A
  Gtr I
   W                  W                    H           Q.         E
|------------------|-------------------|--15----------15---------15-----|
|------------------|-------------------|--18b20-------18b20------18b20==|
|------------------|-------------------|--------------------------------|
|------------------|-------------------|--------------------------------|
|------------------|-------------------|--------------------------------|
|------------------|-------------------|--------------------------------|
|
| Gtr II
| +Q   E E E E E E   +Q   E E E E E  E    +Q      E E  E     E E  E
|-(5)--5-----5---4-|-(4)--4-----4----9-|--(9)-----9----------9----9-----|
|-(6)--6-----6---5-|-(5)--5-----5---10-|-(10)----10---------10---10-----|
|-(5)--5-----5---4-|-(4)--4-----4----9-|--(9)-----9----------9----9-----|
|------------------|-------------------|--------------------------------|
|------------------|-------------------|--------------------------------|
|------------------|-------------------|--------------------------------|


                                   G
   +E    Q        E     H
|-(15)--15-------15----15--------------||
|-(18)r-18b20----18b20-18b20----------o||
|--------------------------------------||
|--------------------------------------||
|-------------------------------------o||
|--------------------------------------||
|
|  +E    E     E  E     E     E  E  E
|--(9)---9-----9--9-----9-----9--9-10--||
|-(10)--10----10-10----10----10-10-12-o||
|--(9)---9-----9--9-----9-----9--9-12--||
|--------------------------------------||
|-------------------------------------o||
|--------------------------------------||


 2.
     F   C5 B5     A
  W                 W
|----------------|---------------------*|
|----------------|---------------------*|
|----------------|---------------------*|
|----------------|---------------------*|
|----------------|---------------------*|
|----------------|---------------------*|
|
| Q  E E  E Q.      E  E  E  E  E E Q
|-4--5-----------|--9--9--9--9--9------*|
|-5--6-----------|-10-10-10-10-10------*|
|-4--5-----------|--9--9--9--9--9------*|
|----------------|---------------------*|
|--------10-9----|---------------------*|
|---------8-7----|---------------------*|            
Submit corrections

↑ Back to top | Tablatures and chords for acoustic guitar and electric guitar, ukulele, drums are parodies/interpretations of the original songs. You may use it for private study, scholarship, research or language learning purposes only