» » »

Scooby Doo - Scooby Doo Theme Song Bass

Artists:  A B C D E F G H I J K L M N O P Q R S T U V W X Y Z # 

Scooby Doo Theme Song Bass

(ver. 1) Click to play this song!
Scooby Doo
 Rating:
4/5 (4 votes)

 Scooby Doo Theme Song  lessons Tabs too difficult? Try these video lessons and learn fast
 
                Tuning: Standard

Intro:
G|-----|
D|2-4-6|
A|-----|
E|-----|


Verse 1: (Scooby Dooby Doo...)
G|6-6-4-4-2---4-6----------6-6-4-4/6----6-6-4-4-2--2-4-6-6/7--------6-6-4-2------|
D|----------------2--2-4-2-----------------------------------2-4-2---------------|
A|-------------------------------------------------------------------------------|
E|-------------------------------------------------------------------------------|

Verse 2: (Come on,Scooby Doo...)
G|6-6-4-4-2---4-6----------6-6-4-4/6----6-6-4-4-2--2-4-6-6/7---------6-6-4-2-----|
D|----------------2--2-4-2-----------------------------------2-4-2---------------|
A|-------------------------------------------------------------------------------|
E|-------------------------------------------------------------------------------|


Bridge: (You know we got a mystery...)
G|2-4-6-6/777777777777-767-7-6---7/99-6----2-4-6-6/77777777777-767-7-9---7/9-7/9-|
D|-------------------------------------------------------------------------------|
A|-------------------------------------------------------------------------------|
E|-------------------------------------------------------------------------------|

G|-7/9---------------------------------------------------------------------------|
D|-------------------------------------------------------------------------------|
A|-------------------------------------------------------------------------------|
E|-------------------------------------------------------------------------------|


Verse 3: (Scooby Dooby Doo...)
G|------6-6-4-4-2---4-6----------6-6-4-4/6---6-6-4-4-2--2-4-6-6/7---------6-6-4-2|
D|2-4-6-----------------2--2-4-2----------------------------------2-4-2----------|
A|-------------------------------------------------------------------------------|
E|-------------------------------------------------------------------------------|            
Submit corrections


        Scooby Doo Theme Song  lessons Hard to play? Try these video lessons and learn fast Scooby Doo Theme Song  lessons
        
↑ Back to top | Tablatures and chords for acoustic guitar and electric guitar, ukulele, drums are parodies/interpretations of the original songs. You may use it for private study, scholarship, research or language learning purposes only