» » »

School Of Fish - Rose Colored Glasses Tabs

Artists:  A B C D E F G H I J K L M N O P Q R S T U V W X Y Z # 

Rose Colored Glasses Tabs

(ver. 1) Click to play this song!
School Of Fish
 Rating:
4.4/5 (8 votes)

 Rose Colored Glasses  lessons Tabs too difficult? Try these video lessons and learn fast
 
                [Intro]

e|------------------------------------------|
B|------------------------------------------|
G|--2v---2v---2v---2v---2v---2v---2v---2v---|
D|------------------------------------------|
A|------------------------------------------|
E|------------------------------------------|


Figure 1

A D G A D G
e|----------------------------|----------------------------|
B|--7br--5--------------------|--7br--5--------------------|
G|----------7--6--------------|----------7--6--2--4--6--7--|
D|----------------7--5--4--0--|----------------------------|    Repeat
A|----------------------------|----------------------------|
E|----------------------------|----------------------------|


[Verse]

(just drums and bass, but I'll put in appropriate chords anyway)

A
Everyone is standing 'round waiting for their high
F D
Feel the world turn upside down when you step inside
A
Need a drink of water to keep you standing up
F D
Right now, she means everything and you're not enough

e|------------------|
B|------------------|
G|--2v--2v--2v--2v--|
D|------------------|
A|------------------|
E|------------------|


(Muffled chords)

A
Now you're here again 'cause it had you convinced
F D
That you were apart of something you haven't found since
A
See her making tracks for somewhere far away
F D
Think that you might join her if she'll let you stay


[Chorus]

A D G A
Everything looks good and if it don't you twist it right
A D E G A 
Everything you see you see tonight through rose-colored glasses

(let ring)


[Verse]

A
Finally you speak, the truth comes out
F D
Your whole world is inflated cause it's all you think about
A
You can't stop staring you don't want to ask
F D
With everything in common it won't last


[Chorus]

A D G A
Everything looks good and if it don't you twist it right
A D E G A  
Everything you see you see tonight through rose-colored glasses

(let ring)


[Interlude]

G A 

(go into Figure 1 again)

Figure 1

A D G A D G
e|----------------------------|----------------------------|
B|--7br--5--------------------|--7br--5--------------------|
G|----------7--6--------------|----------7--6--2--4--6--7--|
D|----------------7--5--4--0--|----------------------------|   Repeat
A|----------------------------|----------------------------|
E|----------------------------|----------------------------|
...through rose-colored glasses


Figure leads into bridge/solo


[Bridge]

Em G Cadd9
e|-------------------------(3)--|
B|--7br--5-----5-----------(3)--|
G|----------7-----7--------(0)--| x3
D|-------------------------(2)--|
A|-------------------------(3)--|
E|------------------------------|


Then

D 
(muffled)

then this (with echo effect)
e|----------|
B|----3/----|
G|----2/----|
D|----------|
A|----------|
E|----------|


[Verse]

A
Half alive you step inside your helium balloon
F D
It's the only way to rise above the room
A
It's temporary, colors getting soft
F D
The groove goes on forever, only you can get you off


[Chorus]

(different chords)
C F Bb C
And Everything looks good and if it don't you twist it right
C F G D
Everything you see you see tonight Through rose-colored....

A E D A E D
..glasses
e|------------------------------|-------------------------|
B|--7br--5----------------------|--7br--5-----------------|
G|----------7--6--4----2--4--6--|----------7--6--4--6--2--| x5
D|------------------------------|-------------------------|
A|------------------------------|-------------------------|
E|------------------------------|-------------------------|


[Outro]

e|------------------------------------------|
B|------------------------------------------|
G|--2v---2v---2v---2v---2v---2v---2v---2v---|
D|------------------------------------------|
A|------------------------------------------|
E|------------------------------------------|


Figure 1

A D G A D G
e|----------------------------|----------------------------|
B|--7br--5--------------------|--7br--5--------------------|
G|----------7--6--------------|----------7--6--2--4--6--7--|
D|----------------7--5--4--0--|----------------------------|    Repeat
A|----------------------------|----------------------------|
E|----------------------------|----------------------------|            
Submit corrections


        Rose Colored Glasses  lessons Hard to play? Try these video lessons and learn fast Rose Colored Glasses  lessons
        
↑ Back to top | Tablatures and chords for acoustic guitar and electric guitar, ukulele, drums are parodies/interpretations of the original songs. You may use it for private study, scholarship, research or language learning purposes only