Home » S » Schandmaul »

Schandmaul - Der Anker Tabs

Artists:  A B C D E F G H I J K L M N O P Q R S T U V W X Y Z # 

Der Anker Tabs

(ver. 1) Click to play this song!
Schandmaul
 Rating:
2.1/5 (28 votes)
                Tuning: Standard

    
e|---------------------------------------------------------------------|
B|------------1--0-------------------------------1--0------------------|
G|--------------------0---------0-------------------------0---------0--|
D|--------------------------0---2-------------------------------0---2--|
A|-----3-----------------------------------3---------------------------|
E|--3-----3-----------------------------3-----3------------------------|



e|-----------0-----------1------------0---------------------------------|
B|--------3--------3------------3------------3--------------------------|
G|-----0----------------------------------------0-----------------------|
D|--3------------------3------------3--------------2--------------------|
A|----------------------------------------------------------------------|
E|----------------------------------------------------------------------|

e|--------------------------------------0--------------------------------|
B|-----------1-------------4---------------4--1--------------------------|
G|--------0--------0-------------0---------------0-----------------------|
D|-----2--------------2-------------2---------------2--------------------|
A|--3--------------------------------------------------------------------|
E|-----------------------------------------------------------------------|


C
Nachtelang sehn ich mich fort,
C
suche ich nach jenem Ort.
Am
Dem Ort, an dem ich glucklich bin,
Am
wo ist der Ort hier in mir drin?


C
Wann hat die Suche angefang',
C
wann fiel der Schleier, fiel der Bann?
Am
Wo kommen die Gedanken her?
Am
Ich spur den Zweifel mehr und mehr.


C
Nachts, wenn die Stille den Alltag besiegt,
Am
und sich mein Kopf auf seine Reisen begibt,
C
wenn die Schatten sich haschen,
Am
ich mich in mir verlier,
             F
bist Du mein Anker im Jetzt und Hier,
        Em
und ich danke Dir dafur...!


C
Jahrelang nur Schritt fur Schritt,
C
ein Ziel verfolgt und Stuck fur Stuck,
Am
den Kurs verloren und aufgegeben,
Am
ich wunschte mir ein neues Leben.


C
Segelte des Nachts hinaus,
C
suchte den Sturm, den Weg hier raus,
    Am
den Weg, wie man zu Grunde geht,
  Am
obwohl man doch nur einmal lebt!



C
Nachts, wenn die Stille den Alltag besiegt,
Am
und sich mein Kopf auf seine Reisen begibt,
C
wenn die Schatten sich haschen,
Am
ich mich in mir verlier,
             F
bist Du mein Anker im Jetzt und Hier,
        Em
und ich danke Dir dafur...!


          C    Em     Am     Em
Ich bleib hier,   bei Dir!
             C       Em
Geb Dir mein Wort,
                  Am               Em
Fur alle Zeit und Jetzt und Hier!


          C    Em     Am    Em
Ich bleib hier,   bei Dir!
             C       Em
Geb Dir mein Wort,
                  Am              Em
Fur alle Zeit und Jetzt und Hier!
                  C               Em
Fur alle Zeit und Jetzt und Hier!            
Submit corrections

↑ Back to top | Tablatures and chords for acoustic guitar and electric guitar, ukulele, drums are parodies/interpretations of the original songs. You may use it for private study, scholarship, research or language learning purposes only