» » »

Scars Of Life - Watch Me Drown Tabs

Artists:  A B C D E F G H I J K L M N O P Q R S T U V W X Y Z # 

Watch Me Drown Tabs

(ver. 1) Click to play this song!
Scars Of Life
 Rating:
4.3/5 (6 votes)


 Watch Me Drown lessons Tabs too difficult? Try these video lessons and learn fast
 
                Watch Me Drown 
drop C tuning          
Legend: /-slide up, \-slide down
^bend up then back down
h-hammer on, p-pull off

opening riff- 1 guitar only
C------------------------------------
G--------------3-3-3------------5-5--
C--0-0-0-1-1-1--------0-0-0-1-1------

C-----------------------------------
G--------------3-3-3----------------
C--0-0-0-1-1-1-------0-0-0-3-3-3-3--

C------------------------------------
G--------------3-3-3------------5-5--
C--0-0-0-1-1-1--------0-0-0-1-1------

C--------------------------x-x-x-x--
G--------------3-3-3-------x-x-x-x--
C--0-0-0-1-1-1-------0-0-0-x-x-x-x--


rhythm 1 part #1-4x
F-------5-------7-------5-------------
C--0-1--x--0-1--x--0-1--x--0-3-3-3-3--
G--0-1--3--0-1--5--0-1--3--0-3-3-3-3--
C--0-1-----0-1-----0-1-----0-3-3-3-3--

F-------5-------7-------5-------------
C--0-1--x--0-1--x--0-1--x--0-x-x-x-x--
G--0-1--3--0-1--5--0-1--3--0-x-x-x-x--
C--0-1-----0-1-----0-1-----0-x-x-x-x--

rhythm 1, part #2 comes in after 2x of part #1 and is played 2x with it
C--0-1 /5--0-1 /7--0-1 /5--0-3-3-3-3-- ( / means slide up into the note)
G--0-1-----0-1-----0-1-----0-3-3-3-3--
C--0-1-----0-1-----0-1-----0-3-3-3-3--


C--0-1-/5--0-1-/7--0-1-/5--0-x-x-x-x--
G--0-1-----0-1-----0-1-----0-x-x-x-x--
C--0-1-----0-1-----0-1-----0-x-x-x-x--

rhythm-2 part#1  4x
C-------------------------------
G----------------------------3--
C--1p0-0-0--0-1p0-0-0--0-0h1----

C-------------------------------
G----------------------------3--
C--1p0-0-0--0-1p0-0-0--0-0h1----

C-------------------------------
G----------------------------3--
C--1p0-0-0--0-1p0-0-0--0-0h1----


C-------------------------7-7--
G-------------------------5-5--
C--1p0-0-0--0-1p0-0-0--0-------

rhythm #2 part#2, comes in after 2x of part #1 and is played 2x one guitar
C--9--9h10p9--9--9h10p9--7--7/--10----------           playing part one
G-------------------------------------------
C-------------------------------------------

(repeat rhythm one parts #1 & part #2)


chorus part#1- played 2x
C----7--7^---7--7--7^---7---5---5^---5------10-----10-----10-
G------------------------------------------------------------
C--0--0----0--5--5----5---3---3----3-----8------8------8-----

chorus part#2 played 2x over part #1 on 2nd guitar (all octave chords)
F--14^--14-14-141414\12-12-12-1212-14^-14-14-141414/15-15-15
C-----------------------------------------------------------
G--12^--12-12-121212\10-10-10-1010-12^-12-12-121212/13-13-13
C-----------------------------------------------------------

(repeat rhythm #2 parts 1 & 2, then rhythm 1 parts 1 & 2..then chorus parts 1 & 2)

bridge  6x total, 1st time 1 guitar,2nd time 2nd guitar accents 1st 3 chords 
D--------------------------------------    last 4x both guitars play all together
A------3-------------------------
F------x--------------------3/5--
C------1--------------------x-x--
G--0-0---0-0--0-1p0-0-0--0--1/3--
C--0-0---0-0--0-1p0-0-0--0-------

D--------------------------------
A------3-------------------------
F------x-------------------------
C------1-------------------------
G--0-0---0-0--0-0h1-1-1-1h3-3-1--
C--0-0---0-0--0-0h1-1-1-1h3-3-1--

2nd bridge rhythm-4x
A----------------------------------[n.harmonics]   2nd & 4th time 2nd guitar plays n.harmonics
F------------------------------------------------  -----5-------------
C--0-0-0--0-0-0--0-0-0--0-0-0--0-0----5----------  ---5---5-----------
G--0-0-0--0-0-0--0-0-0--0-0-0--0-0--5---5--------  -------------------
C--0-0-0--0-0-0--0-0-0--0-0-0--0-0---------------  -------------------

repeat rhythm#1 parts 1 & 2, then Chorus then close song with 2nd bridge rhythm
This correct, it came directly from the guitarist
            
Submit corrections



        Watch Me Drown lessons Hard to play? Try these video lessons and learn fast Watch Me Drown lessons
        
↑ Back to top | Tablatures and chords for acoustic guitar and electric guitar, ukulele, drums are parodies/interpretations of the original songs. You may use it for private study, scholarship, research or language learning purposes only