Home » S » Say Anything »

Say Anything - Spidersong Tabs

Artists:  A B C D E F G H I J K L M N O P Q R S T U V W X Y Z # 

Spidersong Tabs

(ver. 1) Click to play this song!
Say Anything
 Rating:
4.3/5 (19 votes)
                [Intro And Chorus]
e|---------------4-4-4-4-4-4-4----|
B|-5-5-5-5-5-5-5-4-4-4-4-4-4-4----|
G|-6-6-6-6-6-6-6-4-4-4-4-4-4-4----|
D|-6-6-6-6-6-6-6-6-6-6-6-6-6-6----|
A|-4-4-4-4-4-4-4-6-6-6-6-6-6-6----|
E|---------------4-4-4-4-4-4-4----|
 
e|--------------------------------|
B|--------------------------------|
G|--------------------------------|
D|-9-9-8-8-4-4---9-9-8-8-4-4------|
A|-7-7-6-6-2-2---7-7-6-6-2-2------|
E|--------------------------------|
 
e|--------------------------------|
B|--------------------------------|
G|--------------------------------|
D|-9-9-8-8-4-4--9-9-8-8-4-4-------|
A|-7-7-6-6-2-2--7-7-6-6-2-2-4-4---|
E|--------------------------2-2---|
 
 
[Verse 1]
 
No more promises
 
I have made them before and broken them
 
Give me the go-ahead
 
And I'll undress myself for you
 
If you're at all interested
 
e|-------------------------------------|
B|-----4---4------4-----4--------4---4-|
G|-----4---4------4-----4--------4---4-|
D|-------------------------------------|
A|-2-2---2-----------------------------|
E|------------2-2-----2----2-4-4---4---|
 
e|-------------------------|
B|-------4-----------------|
G|-------4-----------------|
D|-------------------------|
A|-------------------------|
E|-2-4-4-----4-2-4-2-4-----|
 
 
[Chorus]
 
Now, I'm growing legs
   C#m     G#m
I am the spider
 
I am the spider
 
I'm growing legs
 
I'm the spider
 
I am the spider
 
Crawl inside her
 
I'm the...
 
Hey
 
 
[Verse 2]
 
Oh, I know your pain
 
(Oh, I feel ya baby)
 
You, like I
 
Plagued by the flies inside your brain
 
Ohh, I'm creeping up your veins
 
Are you smart enough
 
And small enough to play this game?
 
 
[Chorus]
 
I'm growing legs
 
I'm the spider
 
I am the spider
 
I'm growing legs
 
I'm the spider
 
I am the spider
 
Crawl inside her
 
I'm the...
 
Woah
 
 
[Bridge]
 
e| --------------------------------|
B|---------------------------------|
G|---------------------------------|
D|---------------------------------|
A|-7-9-6-7-4-6-2-4-7-8-6-7-4-6-2-4-|
E|---------------------------------|
 
e|--------------------------------|
B|--------------------------------|
G|-8-8--6--8-8--6--8-8--9--8-8--6-|
D|-x-x--x--x-x--x--x-x--x--x-x--x-|
A|-6-6--4--6-6--4--6-6--7--6-6--4-|
E|--------------------------------|
 
I'd better watch my back around you
 
You've got the moves, the shoes, the 'do
 
You've got me
 
Oh, oh, no, no, no
 
And I want you to know I want to
 
e|-----------------------------|
B|-4-4-4---------4-4-4--0-0-0--|
G|-4-4-4---------4-4-4--1-1-1--|
D|-4-4-4--4-4-4--4-4-4--2-2-2--|
A|-2-2-2--4-4-4--2-2-2--2-2-2--|
E|-2-2-2--2-2-2--2-2-2--0-0-0--|
 
e|-----------------------|
B|-----------------------|
G|-----------------------|
D|-6-6-6-6-8-8-8-8-9~----|
A|-6-6-6-6-8-8-8-8-9~----|
E|-4-4-4-4-6-6-6-6-7~----|
 
You've got those tired eyes, all the time
 
You've got those tired eyes, all the time
 
You've got those tired eyes, all the time
 
Yeah, you need someone to bring you to bed
 
 
[Chorus]
 
I'm growing legs
 
I'm the spider
 
I'm the spider
 
Now I'm growing legs
 
I'm the spider
 
I'm the spider
 
 
[Outro]
 
e|---4-2------------4-2--------------|
B|-------4-2-4-2---------4-2----2/4--|
G|-4-------------4-4----------4------|
D|-----------------------------------|
A|-----------------------------------|
E|- ---------------------------------|
 
e|---4-2-------------------|
B|-------4-2-4-2---2--2-4~-|
G|-4-------------4-4--3-4~-|
D|--------------------4-4~-|
A|----------------------2~-|
E|-------------------------|
 
I am cold
 
Too cool to call you
 
Far too stoned to leave my bed
 
I'll write this song to win your kiss
 
But stay asleep instead
 
Ohh
            
Submit corrections

↑ Back to top | Tablatures and chords for acoustic guitar and electric guitar, ukulele, drums are parodies/interpretations of the original songs. You may use it for private study, scholarship, research or language learning purposes only