Home » S » Say Anything »

Say Anything - I Want To Know Your Plans Tabs

Artists:  A B C D E F G H I J K L M N O P Q R S T U V W X Y Z # 

I Want To Know Your Plans Tabs

(ver. 1) Click to play this song!
Say Anything
Okay, this is my very first tab so don't jump down my throat if you don't think it's
all that great.  I really like this song and no one has complete tabs of it, only the
intro.  I haven't figured it all out yet, only parts.  If you can figure out the rest
or at least some of the other parts or fix my mistakes then please! correct me!  I
encourage your criticism!

|---3---|---3---|---3---|---3----|
|---3---|---3---|---3---|---3----|
|---0---|---0---|---0---|---2----|
|---0---|---2---|---2---|---0----|
|---2---|---3---|---2---|---x----|
|---3---|---x---|---0---|---x----|
 Gmaj   Cmajadd9    Em7    Dsus4

Intro:
|------------------------------------------------|
|----3----------3--------------------------------|
|----0----------0--------------------------------|   4x
|----0----------0-------0---------0--------------|
|------0-0-2-3-----3-3----2--2-2----0-0-0^2^0----|
|-3----------------------------------------------|

|---1---------|
|---1---------|
|---1---------|
|---1---------|
|---1---------|
|---1---------|

Verse:
|--------------------------------|
|--------------------------------|
|------0-0----0-0----0-0----0-0--|   3x
|------0-0----0-0----0-0----0-0--|
|------2-2--3-2-2----2-2--3-2-2--|
|----3-3-3----3-3--3-3-3----3-3--|
I want to know your plans 
And how involved in them I am 
When you leave for good this fall 
           Cmajadd3      Dsus4
Will    I   be      forgiven? 

|------------------------------------------|
|------------------------------------------|
|-----------------0-0-0-0-0-0-0-0-0-0-0-0--|
|-----------------2-2-2-2-0-0-0-0-2-2-2-2--|
|-----------------2-2-2-2-2-2-2-2-3-3-3-3--|
|-----------------0-0-0-0-3-3-3-3----------|
And if  you  want roses

|-3-3-3-3----------3----3-3-3-3----3-3-3-3----3-3-3-3--|
|-3-3-3-3----------3----3-3-3-3----3-3-3-3----3-3-3-3--|
|-0-0-0-0----------0----0-0-0-0----0-0-0-0----0-0-0-0--|
|-2-2-2-2----------0----0-0-0-2----2-2-2-0----0-0-0-0--|
|-3-3-3-3----------2----2-2-2-3----3-3-3-2----2-2-2-2--|
|------------------3----3-3-3------------3----3-3-3-3--|
                   d    u d u d    u d u d    u d u d 
I'll buy a bouquet 

|------------------------------------------|
|------------------------------------------|
|-----------------0-0-0-0-0-0-0-0-0-0-0-0--|
|-----------------2-2-2-2-0-0-0-0-2-2-2-2--|
|-----------------2-2-2-2-2-2-2-2-3-3-3-3--|
|-----------------0-0-0-0-3-3-3-3----------|
If that just won't cut it 
|-3-3-3-3-----------3----3-3-3-3----3-3-3-3----3-3-3--3--3|
|-3-3-3-3-----------3----3-3-3-3----3-3-3-3----3-3-3--3--3|
|-0-0-0-0-----------0----0-0-0-0----0-0-0-0----0-0-0--0--0|
|-2-2-2-2-----------0----0-0-0-2----2-2-2-0----0-0-0--2--2|
|-3-3-3-3-----------2----2-2-2-3----3-3-3-2----2-2-2--2--3|
|-------------------3----3-3-3------------3----3-3-3--0---|
                    d    u d u d    u d u d    u d u 
 Well, what can I say? 


            Em7        Gmaj         Dsus4            Cmajadd9
You're what keeps me believing this world's not gone dead 
Em7            Gmaj          Dsus4       Cmajadd9
Strength in my bones and the words in my head 
          Em7         Gmaj
When they pour out to paper 
     *Gmaj  *Dsus4  *Cmajadd9  
It's all    for     you 
Cause that's what you do 
That's what you do
            
Submit corrections

↑ Back to top | Tablatures and chords for acoustic guitar and electric guitar, ukulele, drums are parodies/interpretations of the original songs. You may use it for private study, scholarship, research or language learning purposes only