» » »

Saxon - Ive Got To Rock To Stay Alive Tabs

Artists:  A B C D E F G H I J K L M N O P Q R S T U V W X Y Z # 

Ive Got To Rock To Stay Alive Tabs

(ver. 2) Click to play this song!
Saxon
 Rating:
4.1/5 (31 vote)

 Ive Got To Rock To Stay Alive lessons Tabs too difficult? Try these video lessons and learn fast
 
                Intro and main riff (transcribed by H. SALVAT)
D#|--------------------------|------------------------------|
A#|----------5~~-------------|------------------------------|
F#|-------7~~---5-5~/7--2~~--|----------0~~------0~~-----2~-|
C#|----7~-7~~---5-5~/7--2~~--|-------0~~------2~~----5-5-2~-|
G#|-0~------------------0~~--|----2~~------0~~-------3\2-0~-|
D#|--------------------------|------------------------------|


Second riff (transcribed by H. SALVAT)
D#|-----------------------------------|
A#|-----------------------------------|
F#|-----5~-----7~~-------5~-----2~~---|
C#|-----5~-----7~~-------5~-----2~~---|
G#|-0-0----0-0-----0-0-0----0-0-----0-|
D#|-----------------------------------|
            
Submit corrections


        Ive Got To Rock To Stay Alive lessons Hard to play? Try these video lessons and learn fast Ive Got To Rock To Stay Alive lessons
        
↑ Back to top | Tablatures and chords for acoustic guitar and electric guitar, ukulele, drums are parodies/interpretations of the original songs. You may use it for private study, scholarship, research or language learning purposes only