» » »

Saxon - Big Teaser Tabs

Artists:  A B C D E F G H I J K L M N O P Q R S T U V W X Y Z # 

Big Teaser Tabs

(ver. 2) Click to play this song!
Saxon
 Rating:
4/5 (4 votes)

 Big Teaser lessons Tabs too difficult? Try these video lessons and learn fast
 
                Tuning:Standart

intro
e|------------------------------------------------|
B|------2-----0-----3-----3~----------------------|
G|------2-----1-----2-----2~----------------------|
D|------2-----2-----0-----0~----------------------|
A|--0-0---0-0---0-0---0-0-------------------------|
E|------------------------------------------------|(x8)

e|---------------------------------|
B|-------8--8-7----8--8-7~---------|
G|-------7--7-7----7--7-7~---------|
D|-----0-0--0-0--0-0--0-0~--0-0-0--|
A|---------------------------------|
E|---------------------------------|(x2)

verse
e|------------------------------------------------------------------------------|
B|--------6-6~---------6-6~-------8--8-7----8--8-7~-----------8--8-7----8--8-7~-|
G|--0---7-7-7~---0---7-7-7~-------7--7-7----7--7-7~-----------7--8-7----7--7-7~-|
D|--7/9-9-9------7/9-9-9--------0-0--0-0--0-0--0-0~--0-0-0--0-0--0-0--0-0--0-0~-|
A|------------------------------------------------------------------------------|
E|------------------------------------------------------------------------------|(x3)

e|---------------------------------------------------------|
B|---------------------------------------------------------|
G|--------6-6~---------6-6~---2----2-2----2-2----2-2-------|
D|--0---7-7-7~---0---7-7-7~---2----2-2----2-2----2-2-------|
A|--7/9-9-9------7/9-9-9------0----0-0----0-0----0-0-------|
E|---------------------------------------------------------|

chorus
e|--------------------------------------------------------------------------------------|
B|---3---3---3--3-3--3-3--3---3---3--3-3--3-3--3---3---3--3-3--3-3--3---3---3--3-3--3-3-|
G|---2---2---2--2-2--2-2--2---2---2--2-2--2-2--2---2---2--2-2--2-2--2---2---2--2-2--2-2-|
D|---0---0---0--0-0--0-0----------------------------------------------------------------|
A|------------------------3---3---3--3-3--3-3--1---1---1--1-1--1-1--3---3---3--3-3--3-3-|
E|--------------------------------------------------------------------------------------|(x2)

e|---------------------------------|
B|-------8--8-7----8--8-7~---------|
G|-------7--7-7----7--7-7~---------|
D|-----0-0--0-0--0-0--0-0~--0-0-0--|
A|---------------------------------|
E|---------------------------------|(x2)

verse
e|------------------------------------------------------------------------------|
B|--------6-6~---------6-6~-------8--8-7----8--8-7~-----------8--8-7----8--8-7~-|
G|--0---7-7-7~---0---7-7-7~-------7--7-7----7--7-7~-----------7--8-7----7--7-7~-|
D|--7/9-9-9------7/9-9-9--------0-0--0-0--0-0--0-0~--0-0-0--0-0--0-0--0-0--0-0~-|
A|------------------------------------------------------------------------------|
E|------------------------------------------------------------------------------|(x3)

e|---------------------------------------------------------|
B|---------------------------------------------------------|
G|--------6-6~---------6-6~---2----2-2----2-2----2-2-------|
D|--0---7-7-7~---0---7-7-7~---2----2-2----2-2----2-2-------|
A|--7/9-9-9------7/9-9-9------0----0-0----0-0----0-0-------|
E|---------------------------------------------------------|

chorus
e|--------------------------------------------------------------------------------------|
B|---3---3---3--3-3--3-3--3---3---3--3-3--3-3--3---3---3--3-3--3-3--3---3---3--3-3--3-3-|
G|---2---2---2--2-2--2-2--2---2---2--2-2--2-2--2---2---2--2-2--2-2--2---2---2--2-2--2-2-|
D|---0---0---0--0-0--0-0----------------------------------------------------------------|
A|------------------------3---3---3--3-3--3-3--1---1---1--1-1--1-1--3---3---3--3-3--3-3-|
E|--------------------------------------------------------------------------------------|

e|------------------------------------------------------------------|
B|---3---3---3--3-3--3-3--3---3---3--3-3--3-3--3---3---3--3-3--3-3--|
G|---2---2---2--2-2--2-2--2---2---2--2-2--2-2--2---2---2--2-2--2-2--|
D|---0---0---0--0-0--0-0--------------------------------------------|
A|------------------------3---3---3--3-3--3-3--1---1---1--1-1--1-1--|
E|------------------------------------------------------------------|

bridge
e|---------------------------------------------------------------|
B|---------------------------------------------------------------|
G|---------------------------------------------------------------|
D|--------------------------------5-5-5-5-5-5-5-5-5-5-5-5-5-5-5--|
A|-5-5-5-5-5-5-5-5-5-5-5-5-5-5-5--2/3-3-2/3-3-2/3-3-2/3-3-2/3-3--|
E|-2/3-3-2/3-3-2/3-3-2/3-3-2/3-3---------------------------------|

e|----------------------------------------------------------|
B|----------------------------------------------------------|
G|----------------------------------------------------------|
D|-0h2-2-0h2-2-0h2-2-0h2-2-0h2-2--7-7-7-7-7-7-7-7-7-7-7-7-7-|
A|-0-0-0-0-0-0-0-0-0-0-0-0-0-0-0--4/5-5-4/5-5-4/5-4/5-5-5-5-|
E|----------------------------------------------------------|
 
repeat this melody until the end of the song
e|----------------------------------------------------------------|
B|--12-10------------12-10------------10-8------------------8-10--|
G|--------12-11-9----------12-11-9---------10-9-7----7-9-10-------|
D|----------------12---------------12-------------10--------------|
A|----------------------------------------------------------------|
E|----------------------------------------------------------------|            
Submit corrections


        Big Teaser lessons Hard to play? Try these video lessons and learn fast Big Teaser lessons
        
↑ Back to top | Tablatures and chords for acoustic guitar and electric guitar, ukulele, drums are parodies/interpretations of the original songs. You may use it for private study, scholarship, research or language learning purposes only