» » »

Saxon - And The Bands Played On Bass

Artists:  A B C D E F G H I J K L M N O P Q R S T U V W X Y Z # 

And The Bands Played On Bass

(ver. 2) Click to play this song!
Saxon
 Rating:
4/5 (4 votes)

 And The Bands Played On lessons Tabs too difficult? Try these video lessons and learn fast
 
                
AND THE BANDS PLAYED ON (Bassline)
As recorded by Saxon
(From the 1981 Album DENIM AND LEATHER)

	

Words by Biff Bryford Music by Steve Dawson, Biff Bryford, Graham Oliver, Paul Quinn and Pete Gill
Arranged by Mark Hunter

Gtr I (Eb Ab Db Gb) - 'Steve Dawson'

   Intro
    Upbeat Hard Rock Q=135
   2/4
    Gtr I
      PM|            PM|
    |-3-|          |-3-|
    Q Q Q   H      Q Q Q   H
||--------|------|-------|------|
||o-------|------|-------|------|
||o-5-7-7-|-7----|-3-5-5-|-5----|
||--------|------|-------|------|


    PM|
  |-3-|
  Q Q Q   H      H      H
|-------|------|------|-------||
|-------|------|------|------o||
|-5-7-7-|-7----|-3----|-5----o||
|-------|------|------|-------||


   Verse 1
    PM      PM        PM      PM        PM      PM
    |--3--| |--3--|   |--3--| |--3--|   |--3--| |--3--|
    E +E  E E +E  E   E +E  E E +E  E   E +E  E E +E  E
||------------------|-----------------|-----------------|
||o-----------------|-----------------|-----------------|
||o-7-(7)-7-7-(7)-7-|-7-(7)-7-7-(7)-7-|-7-(7)-7-7-(7)-7-|
||--0-(0)-0-0-(0)-0-|-0-(0)-0-0-(0)-0-|-0-(0)-0-0-(0)-0-|


  Q  Q    H      +H       H      +H      4x
|-------|------|--------|------|---------||
|-------|------|--------|------|--------o||
|-7--5--|-3----|-(3)----|-5----|-(5)----o||
|-------|------|--------|------|---------||


   Chorus
      PM|            PM|
    |-3-|          |-3-|
    Q Q Q   H      Q Q Q   H
||--------|------|-------|------|
||o-------|------|-------|------|
||o-5-7-7-|-7----|-3-5-5-|-5----|
||--------|------|-------|------|


    PM|
  |-3-|
  Q Q Q   H      H      H
|-------|------|------|-------||
|-------|------|------|------o||
|-5-7-7-|-7----|-3----|-5----o||
|-------|------|------|-------||


   Verse 2
    PM      PM        PM      PM        PM      PM
    |--3--| |--3--|   |--3--| |--3--|   |--3--| |--3--|
    E +E  E E +E  E   E +E  E E +E  E   E +E  E E +E  E
||------------------|-----------------|-----------------|
||o-----------------|-----------------|-----------------|
||o-7-(7)-7-7-(7)-7-|-7-(7)-7-7-(7)-7-|-7-(7)-7-7-(7)-7-|
||--0-(0)-0-0-(0)-0-|-0-(0)-0-0-(0)-0-|-0-(0)-0-0-(0)-0-|


  Q  Q    H      +H       H      +H      4x
|-------|------|--------|------|---------||
|-------|------|--------|------|--------o||
|-7--5--|-3----|-(3)----|-5----|-(5)----o||
|-------|------|--------|------|---------||


   Chorus
      PM|            PM|
    |-3-|          |-3-|
    Q Q Q   H      Q Q Q   H
||--------|------|-------|------|
||o-------|------|-------|------|
||o-5-7-7-|-7----|-3-5-5-|-5----|
||--------|------|-------|------|


    PM|
  |-3-|
  Q Q Q   H      H      H
|-------|------|------|-------||
|-------|------|------|------o||
|-5-7-7-|-7----|-3----|-5----o||
|-------|------|------|-------||


   Verse 3
    PM      PM        PM      PM        PM      PM
    |--3--| |--3--|   |--3--| |--3--|   |--3--| |--3--|
    E +E  E E +E  E   E +E  E E +E  E   E +E  E E +E  E
||------------------|-----------------|-----------------|
||o-----------------|-----------------|-----------------|
||o-7-(7)-7-7-(7)-7-|-7-(7)-7-7-(7)-7-|-7-(7)-7-7-(7)-7-|
||--0-(0)-0-0-(0)-0-|-0-(0)-0-0-(0)-0-|-0-(0)-0-0-(0)-0-|


  Q  Q    H      +H       H      +H      4x
|-------|------|--------|------|---------||
|-------|------|--------|------|--------o||
|-7--5--|-3----|-(3)----|-5----|-(5)----o||
|-------|------|--------|------|---------||


   Chorus
      PM|            PM|
    |-3-|          |-3-|
    Q Q Q   H      Q Q Q   H
||--------|------|-------|------|
||o-------|------|-------|------|
||o-5-7-7-|-7----|-3-5-5-|-5----|
||--------|------|-------|------|


    PM|
  |-3-|
  Q Q Q   H      H      H     3x
|-------|------|------|-------||
|-------|------|------|------o||
|-5-7-7-|-7----|-3----|-5----o||
|-------|------|------|-------||


    PM|            PM|
  |-3-|          |-3-|
  Q Q Q   H      Q Q Q   H
|-------|------|-------|------|
|-------|------|-------|------|
|-5-7-7-|-7----|-3-5-5-|-5----|
|-------|------|-------|------|


 Outro
  H.=H
    PM|
  |-3-|
  Q Q Q   H      H      H
|-------|------|------|------|
|-------|------|------|------|
|-5-7-7-|-7----|-3----|-5----|
|-------|------|------|------|


  H      +H       +H       +H
|------|--------|--------|--------*|
|------|--------|--------|--------*|
|-7----|-(7)----|-(7)----|-(7)----*|
|------|--------|--------|--------*|



Duration Legend
---------------
W - whole; H - half; Q - quarter; E - 8th; S - 16th; T - 32nd; X - 64th; a - acciaccatura
+ - note tied to previous; . - note dotted; .. - note double dotted
Uncapitalized letters represent notes that are staccato (1/2 duration)
Irregular groupings are notated above the duration line
Duration letters will always appear directly above the note/fret number it represents the
duration for.  Duration letters with no fret number below them represent rests.  Multi-
bar rests are notated in the form Wxn, where n is the number of bars to rest for.  Low
melody durations appear below the staff

Tablature Legend
----------------
 h   - hammer-on
 p   - pull-off
 b   - bend
 pb  - pre-bend
 r   - bend release (if no number after the r, then release immediately)
 /\  - slide into or out of (from/to "nowhere")
 s   - legato slide
 S   - shift slide
 - natural harmonic
[n]  - artificial harmonic
n(n) - tapped harmonic
 ~   - vibrato
 tr  - trill
 T   - tap
 TP  - trem. picking
 PM  - palm muting
\n/  - tremolo bar dip; n = amount to dip
 \n  - tremolo bar down
 n/  - tremolo bar up
/n\  - tremolo bar inverted dip
 =   - hold bend; also acts as connecting device for hammers/pulls
 <> - volume swell (louder/softer)
 x   - on rhythm slash represents muted slash
 o   - on rhythm slash represents single note slash

Misc Legend
-----------
 |  - bar
||  - double bar
||o - repeat start
o|| - repeat end
*|  - double bar (ending)
 :  - bar (freetime)
 $  - Segno
 &  - Coda
Tempo markers -  = BPM(8/16=s8/s16), where s8 = swing 8ths, s16 = swing 16ths
            
Submit corrections


        And The Bands Played On lessons Hard to play? Try these video lessons and learn fast And The Bands Played On lessons
        
↑ Back to top | Tablatures and chords for acoustic guitar and electric guitar, ukulele, drums are parodies/interpretations of the original songs. You may use it for private study, scholarship, research or language learning purposes only