» » »

Saxon - 747 (Strangers In The Night) Tabs

Artists:  A B C D E F G H I J K L M N O P Q R S T U V W X Y Z # 

747 (Strangers In The Night) Tabs

(ver. 3) Click to play this song!
Saxon
 Rating:
4/5 (4 votes)

 747 (Strangers In The Night) lessons Tabs too difficult? Try these video lessons and learn fast
 
                Hi, this is my first tab, but I'm pretty sure this is accurate. Please leave comments 
ratings. Standard Tuning. Timing for the song is only done by using your own ears. Great 
Hope you all enjoy. Asta La Vista.

INTRO
Guitar 1

|-15b17--15-12----------------------------------------------|
|---------------------15--12-------------------- -----------|
|-------------------------------14b16r(14)-12-16-12-14------|
|-------------------------------------------------------12--|
|-----------------------------------------------------------|
|-----------------------------------------------------------|
|


|---------------------------------------------12------12----|
|-------------------------/12-15--12------------------------|
|-12h14p12------(12)\---------------------------------------|
|-----------------------------------------------------------|
|-----------------------------------------------------------|
|-----------------------------------------------------------|


|-15b17------------17b19--------------15-17--15---12----12--|
|----------------------------------------------------15-----|
|-----------------------------------------------------------|
|-----------------------------------------------------------|
|-----------------------------------------------------------|
|-----------------------------------------------------------|


|-15-------12------------------------------------------------|
|----------------15------------------------------------------|
|-------------------------14-12-14---12-14--12------(12)-----|
|--------------------------------------------------------/14-|
|------------------------------------------------------------|
|------------------------------------------------------------|


|------------------------------------------------------------|
|------------------------------------------------------------|
|----------------------12------------------------------------|
|-14-------14---14--------14------14-------------------------|
|---------------------------------------14-------------------|
|------------------------------------------------------------|


|------------------------------------------------------15h17-|
|-------------------------------------15b17------15h17-------|
|----------12--14-14b16---14p12------------------------------|
|-12-14------------------------------------------------------|
|------------------------------------------------------------|
|------------------------------------------------------------|


|-17b19---17b19--17b19r--(17)-15-----------------------------|
|--------------------------------17p15--15--(15)-12h15p12----|
|---------------------------------------------------------14-|
|------------------------------------------------------------|
|------------------------------------------------------------|
|------------------------------------------------------------|


|------------------------------------------------------------|
|-12----12------------------------------12-------------------|
|----14---------------------------------12-------------------|
|-----------12-14-12-14-12-|-14--------------14-12-----------|
|--------------------------------------------------14-12-----|
|-------------------------------------------------------15-12|

Guitar 2

Throughout Intro, Keep Repeating These Two Riffs

|-----------------------------|------------------------------|
|-----------------------------|------------------------------|
|-----9--5--7-7--2------------|--9--5--7-7--9----------------|  X 4
|-----9--5--7-7--2------------|--9--5--7-7--9----------------|
|-----7--3--5-5--0------------|--7--3--5-5--7----------------|
|-------------------3--2--0---|-----------------------3--2--0|


PRE-VERSE (0:28)
Guitar 2

|----------------|-------------|----------------|-------------|
|----------------|-------------|----------------|-------------|
|-9---5------7-7-|---2---------|-9---5------7-7-|---9----(9)\-|
|-9---5------7-7-|---2---------|-9---5------7-7-|---9----(9)\-|
|-7---3------5-5-|---0---------|-7---3------5-5-|---7----(7)\-|
|----------------|-------------|----------------|-------------|

   VERSE 1 (0:35)
  Both Guitars
|------------------|----------------------|
|------------------|----------------------|
|---9---5------7-7-|---2------------------|
|---9---5------7-7-|---2------------------|
|---7---3------5-5-|---0------------| ]---|
|------------------|--------3-2-0---|  ---|
                                        |
                                         X 3
                                        |
|------------------|-----------------| ---|
|------------------|-----------------| ]--|
|---9---5------7-7-|---9------------------|
|---9---5------7-7-|---9------------------|
|---7---3------5-5-|---7------------------|
|------------------|--------3-2-0---------|


|------------------|-----------------------------------------|
|------------------|-----------------------------------------|
|---9---5------7-7-|---2-------------------------------------|
|---9---5------7-7-|---2------------| ]----------------------|
|---7---3------5-5-|---0------------|                     ---|
|------------------|--------3-2-0---|                     ---|
                                                           |
                                                           |
                                                            End On This
|------------------|-----------------|---------------|    ---|
|------------------|-----------------|---------------|    ---|
|---9---5------7-7-|---9-------------|---9----(9)----|]------|
|---9---5------7-7-|---9-------------|---9----(9)------------|
|---7---3------5-5-|---7-------------|---7----(7)------------|
|------------------|--------3-2-0----|-----------------------|


   CHORUS 1 (1:05)
  Both Guitars
|------1-0----1--|-----1-0----1--|-----1-0----1--|-----1-0----1---|
|----------------|---------------|---------------|----------------|
|----2-----------|---2-----------|---2-----------|---2------------|
|--0-------------|-0-------------|-0-------------|-0--------------|
|----------------|---------------|---------------|----------------|
|----------------|---------------|---------------|----------------|

|-----1-0----1--|-----1-0----1--|-----1-0----1--|-----1-0----1---|
|---------------|---------------|---------------|----------------|
|---2-----------|---2-----------|---2-----------|---2------------|
|-0-------------|-0-------------|-0-------------|-0--------------|
|---------------|---------------|---------------|----------------|
|---------------|---------------|---------------|----------------|


  VERSE 2 (1:34)
Both Guitars
|------------------|----------------------|
|------------------|----------------------|
|---9---5------7-7-|---2------------------|
|---9---5------7-7-|---2------------------|
|---7---3------5-5-|---0------------| ]---|
|------------------|--------3-2-0---|  ---|
                                        |
                                         X 3
                                        |
|------------------|-----------------| ---|
|------------------|-----------------| ]--|
|---9---5------7-7-|---9------------------|
|---9---5------7-7-|---9------------------|
|---7---3------5-5-|---7------------------|
|------------------|--------3-2-0---------|


|------------------|-----------------------------------------|
|------------------|-----------------------------------------|
|---9---5------7-7-|---2-------------------------------------|
|---9---5------7-7-|---2------------| ]----------------------|
|---7---3------5-5-|---0------------|                     ---|
|------------------|--------3-2-0---|                     ---|
                                                           |
                                                           |
                                                            End On This
|------------------|-----------------|---------------|    ---|
|------------------|-----------------|---------------|    ---|
|---9---5------7-7-|---9-------------|---9----(9)----|]------|
|---9---5------7-7-|---9-------------|---9----(9)------------|
|---7---3------5-5-|---7-------------|---7----(7)------------|
|------------------|--------3-2-0----|-----------------------|


  CHORUS 2 (2:03)
  Both Guitars

|------1-0----1--|-----1-0----1--|-----1-0----1--|-----1-0----1---|
|----------------|---------------|---------------|----------------|
|----2-----------|---2-----------|---2-----------|---2------------|
|--0-------------|-0-------------|-0-------------|-0--------------|
|----------------|---------------|---------------|----------------|
|----------------|---------------|---------------|----------------|

|-----1-0----1--|-----1-0----1--|-----1-0----1--|-----1-0----1---|
|---------------|---------------|---------------|----------------|
|---2-----------|---2-----------|---2-----------|---2------------|
|-0-------------|-0-------------|-0-------------|-0--------------|
|---------------|---------------|---------------|----------------|
|---------------|---------------|---------------|----------------|


Solo 2 (2:33)
Guitar 1

|------------------------------|----------------------------|
|------------------------------|----------------------------|
|-14b16---14b16-----14b16r(14)-|-12-14--(14)b16--12---------|
|------------------------------|--------------------14------|
|------------------------------|----------------------------|
|------------------------------|----------------------------|

|-14-----------14-----------|-14--------------------|
|----17b19--------17b19-----|----17b19-----(17)-----|
|---------------------------|-----------------------|
|---------------------------|-----------------------|
|---------------------------|-----------------------|
|---------------------------|-----------------------|


|-15-17b19------(17)-----|-(17)-17b19--15----------|
|------------------------|----------------17-------|
|------------------------|-------------------------|
|------------------------|-------------------------|
|------------------------|-------------------------|
|------------------------|-------------------------|


|----------------------|------------------------|
|----------------------|------------------------|
|-16p14-(14)-----14-12-|-(12)-----14-------(14)-|
|----------------------|------------------------|
|----------------------|------------------------|
|----------------------|------------------------|


Guitar 2

|-----------------------------|------------------------------|
|-----------------------------|------------------------------|
|-----9--5--7-7--2------------|--9--5--7-7--9----------------|  X 2
|-----9--5--7-7--2------------|--9--5--7-7--9----------------|
|-----7--3--5-5--0------------|--7--3--5-5--7----------------|
|-------------------3--2--0---|-----------------------3--2--0|


VERSE 3
Both Guitars
|------------------|----------------------|
|------------------|----------------------|
|---9---5------7-7-|---2------------------|
|---9---5------7-7-|---2------------------|
|---7---3------5-5-|---0------------| ]---|
|------------------|--------3-2-0---|  ---|
                                        |
                                         X 3
                                        |
|------------------|-----------------| ---|
|------------------|-----------------| ]--|
|---9---5------7-7-|---9------------------|
|---9---5------7-7-|---9------------------|
|---7---3------5-5-|---7------------------|
|------------------|--------3-2-0---------|


|------------------|-----------------------------------------|
|------------------|-----------------------------------------|
|---9---5------7-7-|---2-------------------------------------|
|---9---5------7-7-|---2------------| ]----------------------|
|---7---3------5-5-|---0------------|                     ---|
|------------------|--------3-2-0---|                     ---|
                                                           |
                                                           |
                                                            End On This
|------------------|-----------------|---------------|    ---|
|------------------|-----------------|---------------|    ---|
|---9---5------7-7-|---9-------------|---9----(9)----|]------|
|---9---5------7-7-|---9-------------|---9----(9)------------|
|---7---3------5-5-|---7-------------|---7----(7)------------|
|------------------|--------3-2-0----|-----------------------|


CHORUS 3
Both Guitars

|------1-0----1--|-----1-0----1--|-----1-0----1--|-----1-0----1---|
|----------------|---------------|---------------|----------------|
|----2-----------|---2-----------|---2-----------|---2------------|
|--0-------------|-0-------------|-0-------------|-0--------------|
|----------------|---------------|---------------|----------------|
|----------------|---------------|---------------|----------------|

|-----1-0----1--|-----1-0----1--|-----1-0----1--|-----1-0----1---|
|---------------|---------------|---------------|----------------|
|---2-----------|---2-----------|---2-----------|---2------------|
|-0-------------|-0-------------|-0-------------|-0--------------|
|---------------|---------------|---------------|----------------|
|---------------|---------------|---------------|----------------|


INTERLUDE
Both Guitars
|------------------|----------------|
|------------------|----------------|
|---9---5------7-7-|---2------------|
|---9---5------7-7-|---2------------|
|---7---3------5-5-|---0------------|
|------------------|--------3-2-0---|


CHORUS 4
Both Guitars

|------1-0----1--|-----1-0----1--|-----1-0----1--|-----1-0----1---|
|----------------|---------------|---------------|----------------|
|----2-----------|---2-----------|---2-----------|---2------------|
|--0-------------|-0-------------|-0-------------|-0--------------|
|----------------|---------------|---------------|----------------|
|----------------|---------------|---------------|----------------|

|-----1-0----1--|-----1-0----1--|-----1-0----1--|-----1-0----1---|
|---------------|---------------|---------------|----------------|
|---2-----------|---2-----------|---2-----------|---2------------|
|-0-------------|-0-------------|-0-------------|-0--------------|
|---------------|---------------|---------------|----------------|
|---------------|---------------|---------------|----------------|


OUTRO
Guitar 1

|-15b17---15------12----|------------------------------|
|--------------------15-|-12---------------------------|
|-----------------------|----14b16r(14)-12-16-12-14----|
|-----------------------|---------------------------12-|
|-----------------------|------------------------------|
|-----------------------|------------------------------|


|-----------------------|------------12------12---|
|-----------------------|-/12-15--12--------------|
|-12h14p12------(12)\---|-------------------------|
|-----------------------|-------------------------|
|-----------------------|-------------------------|
|-----------------------|-------------------------|


|-15b17--------17b19-------|-15-17--15----12----12-|
|--------------------------|-----------------15----|
|--------------------------|-----------------------|
|--------------------------|-----------------------|
|--------------------------|-----------------------|
|--------------------------|-----------------------|


|-15-------12-------------|-------------------------|
|-------------15----------|-------------------------|
|----------------14-12-14-|-12-14--12------(12)-----|
|-------------------------|---------------------/14-|
|-------------------------|-------------------------|
|-------------------------|-------------------------|


|---------------------|--------------------|
|---------------------|--------------------|
|------------------12-|--------------------|
|-14-------14---14----|-14------14---------|
|---------------------|-----------------14-|
|---------------------|--------------------|


|----------------------------|------------------15h17-|
|----------------------------|-15b17------15h17-------|
|-------12--14-14b16---14p12-|------------------------|
|-12-14----------------------|------------------------|
|----------------------------|------------------------|
|----------------------------|------------------------|


|-17b19---17b19--17b19r--(17)-15-|--------------------------------|
|--------------------------------|-17p15--15-----(15)-12h15p12----|
|--------------------------------|-----------------------------14-|
|--------------------------------|--------------------------------|
|--------------------------------|--------------------------------|
|--------------------------------|--------------------------------|


|--------------------------|---------------------------*|
|-12----12-----------------|----12---------------------*|
|----14--------------------|----12---------------------*|
|-----------12-14-12-14-12-|-14-----14-12--------------*|
|--------------------------|--------------14-12--------*|
|--------------------------|--------------------15-12\-*|
            
Submit corrections


        747 (Strangers In The Night) lessons Hard to play? Try these video lessons and learn fast 747 (Strangers In The Night) lessons
        
↑ Back to top | Tablatures and chords for acoustic guitar and electric guitar, ukulele, drums are parodies/interpretations of the original songs. You may use it for private study, scholarship, research or language learning purposes only