Home » S » Saving Abel »

Saving Abel - Addicted Tabs

Artists:  A B C D E F G H I J K L M N O P Q R S T U V W X Y Z # 

Addicted Tabs

(ver. 2) Click to play this song!
Saving Abel
 Rating:
4.8/5 (22 votes)
                   This is a great song and i figuired out a way to play it in standard tuning and 
on an acoustic. i am 100% this is correct.

 Intro/ Verse riff
                                             
e-------1-P-0-----------1-P-0----------1-P-0------------------------|
b-------------3---------------3--------------3-------3-------5------|
g----2---------------0---------------0------------------------------|
d--0-----------------------------------------------3-------5--------|
a------------------3--------------2----------------1-------3--------|
d-------------------------------------------------------------------|


b----3--------5------|   When you play this in the intro just finger Bb and
g--------------------|   C barre chords.
d--3--------5--------|
a--1-------3---------|
d--------------------|

 
  Chorus Chords           Just play the chorus as barre chords.
 
  Dm, C, G, F, G 


  Bridge

e------------------------------------0-----1-p-0----------------------|
b------------------------------3--------------------------------------|
g--------------0--------0------2-------2------------------------------|
d------------2--------0--------0--------------------------------------|
a--0---2---3--------2-------------------------------------------------|
d---------------------------------------------------------------------|



e------------------------------------------------------|
b------------------------------------------------------|
g-------------------------0-------------0--------------|
d---------------------3--------------5-----------------|
a-------0---------1--------------3------------3/5------|
d---3--------------------------------------------------|
       
 Thats it, listen and you can figure out where to play each part.
 Have fun!!!!
            
Submit corrections

↑ Back to top | Tablatures and chords for acoustic guitar and electric guitar, ukulele, drums are parodies/interpretations of the original songs. You may use it for private study, scholarship, research or language learning purposes only