» » »

Saves The Day - Holly Hox Forget Me Not Tabs

Artists:  A B C D E F G H I J K L M N O P Q R S T U V W X Y Z # 

Holly Hox Forget Me Not Tabs

(ver. 2) Click to play this song!
Saves The Day
 Rating:
4/5 (4 votes)

 Holly Hox Forget Me Not lessons Tabs too difficult? Try these video lessons and learn fast
 
                

Intro Guitar1 
e|--0~~~~-----(7)---------------------------| 
B|--0~~~~-----(0)---------------------------| 
G|--0~~~~-----------------------------------| 
D|--0~~~~------------4-4-4-4--6-6-6--9-9-9--| 
A|--0~~~~------------2-2-2-2--4-4-4--7-7-7--| 
E|--0~~~~-----------------------------------| 

Intro Guitar2 
e|---------------------------------------------------------------| 
B|---------------------------------------------------------------| 
G|--11-11-11-11-11-11-11-11\9-9-9-9-9-9-9-9\8-8-8-8-8-8-8-8\6\4--| 
D|---------------------------------------------------------------| 
A|---9--9--9--9--9--9--9--9\7-7-7-7-7-7-7-7\6-6-6-6-6-6-6-6\4\2--| 
E|---------------------------------------------------------------| 

e|-----------------------------------------------------------| 
B|-----------------------------------------------------------| 
G|--11-11-11-11-11-11-11-11\9-9-9-9-9-9-9-9\8-8-8-8-8-8/9\8--| 
D|-----------------------------------------------------------| 
A|---9--9--9--9--9--9--9--9\7-7-7-7-7-7-7-7\6-6-6-6-6-6/7\6--| 
E|-----------------------------------------------------------| 

e|---------------------------------------------| 
B|---------------------------------------------| 
G|--11-11-11/13\11--9-9-9/11\9--8-8-8-8-8\6\4--| 
D|---------------------------------------------| 
A|---9--9--9/11\-9--7-7-7/-9\7--6-6-6-6-6\4\2--| 
E|---------------------------------------------| 

e|---------------------------------------| 
B|---------------------------------------| 
G|--11-11-11/13\11--9-9-9/11\9--9\8~~~~--| 
D|---------------------------------------| 
A|---9--9--9/11\-9--7-7-7/-9\7--7\6~~~~--| 
E|---------------------------------------| 

Verse 
e|---------------------------------| 
B|---------------------------------| 
G|---------------------------------| x2 
D|--4-4-4--6-6-6-6--9-9-9-9-9-9-9--| 
A|--2-2-2--4-4-4-4--7-7-7-7-7-7-7--| 
E|---------------------------------| 

e|---------------------------------| 
B|---------------------------------| 
G|---------------------------------| 
D|--4-4-4--6-6-6-6-----------------| 
A|--2-2-2--4-4-4-4--2-2-2-2-2-2-2--| 
E|------------------0-0-0-0-0-0-0--| 

e|---------------------------------| 
B|---------------------------------| 
G|---------------------------------| 
D|--4-4-4--6-6-6-6-----------------| 
A|--2-2-2--4-4-4-4--2-2-2-2-2-2-2--| 
E|------------------0-0-0-0-0-0-0--| 

Chorus 
Guitar1 
e|----------------------------------------------------------------| 
B|----------------------------------------------------------------| 
G|-----------------------------------------------------9/11/13\9--| 
D|----------------------------------------------------------------| 
A|--6-6-6-6-6-6-6-6--2-2-2-2-2-2-2-2--4-4-4-4-4-4-4-4--7/-9/11\7--| 
E|--4-4-4-4-4-4-4-4--0-0-0-0-0-0-0-0--2-2-2-2-2-2-2-2-------------| 
.......................p.m....................... 

Chorus 
Guitar2 
e|----------------------------------------------------------------------| 
B|----------------------------------------------------------------------| 
G|----------------------------------------------------------------------| 
D|----------------------------------------------------------------------| 
A|--6-6-6-6-6-6-6-6--2-2-2-2-2-2-2-2--4-4-4-4-4-4-4-4--2-2-2-2-2-2-2-2--| 
E|--4-4-4-4-4-4-4-4--0-0-0-0-0-0-0-0--2-2-2-2-2-2-2-2--0-0-0-0-0-0-0-0--| 
................................p.m................................ 

Bridge 
e|------x-x-----x-x-----x-x-----x-x-----x-x-----x-x--| 
B|------x-x-----x-x-----x-x-----x-x-----x-x-----x-x--| 
G|--4-4-x-x-4-4-x-x-4-4-x-x-4-4-x-x-4-4-x-x-4-4-x-x--| 
D|------x-x-----x-x-----x-x-----x-x-----x-x-----x-x--| 
A|--2-2-x-x-2-2-x-x-2-2-x-x-2-2-x-x-2-2-x-x-2-2-x-x--| 
E|------x-x-----x-x-----x-x-----x-x-----x-x-----x-x--| 

Bridge Harmony 
e|--------------------------------------------------| 
B|--------------------------------------------------| 
G|--------------------------------------------------| 
D|--4-4-----6-6-6-----------------------------------| 
A|--2-2--4--4-4-4--2-2-2-2--2-2-2-2-2-2--2-2-2-2-2--| 
E|-------2---------0-0-0-0--0-0-0-0-0-0--0-0-0-0-0--| 

Outro 
e|--------------------------| 
B|--------------------------| 
G|--------------------------| 
D|--4-4-----6-6-6-----------| 
A|--2-2--4--4-4-4--2-2-2-2--| 
E|-------2---------0-0-0-0--| 

Outro Harmony 
e|-------------------------| 
B|-------------------------| 
G|--4-4--xx--4-4--xx--4-4--| 
D|-------------------------| 
A|--2-2--xx--2-2--xx--2-2--| 
E|-------------------------| 

Again...another much more accurate version of an awesome Saves the Day song!! 
            
Submit corrections


        Holly Hox Forget Me Not lessons Hard to play? Try these video lessons and learn fast Holly Hox Forget Me Not lessons
        
↑ Back to top | Tablatures and chords for acoustic guitar and electric guitar, ukulele, drums are parodies/interpretations of the original songs. You may use it for private study, scholarship, research or language learning purposes only