» » »

Saves The Day - Handsome Boy Tabs

Artists:  A B C D E F G H I J K L M N O P Q R S T U V W X Y Z # 

Handsome Boy Tabs

(ver. 1) Click to play this song!
Saves The Day
 Rating:
4/5 (4 votes)

 Handsome Boy lessons Tabs too difficult? Try these video lessons and learn fast
 
                Great Song by Saves The Day, pretty easy too.
Standard Tuning

The small words on top are the words that u switch the chords with

Intro, low volume.
e------------------------------------------------------------------------------------
b------------------------------------------------------------------------------------
g------------------------------------------------------------------------------------
d---------8-------8----- 8----8-----TURN-UP VOLUME----------------------------------
a-------8---8--8---8---8--8-- 8------------------------------------------------------
e-----6-------6-------6-------6-----------------------------------------------------

  Verse- “I said that boys Handsome”
e------------------------------------------------------------------------------------
b------------------------------------------------------------------------------------
g-------   Handsome------little-------me----beautiful---Carrie-----said---------
d-----88888888----10101010---6666------88888888--10101010-----6666--------------
a-----88888888----10101010---6666------88888888--10101010-----6666----------------
e-----66666666----8-8--8-8---4444------66666666---8-8-8-8-----4444---------------

e------------------------------------------------------------------------------------
b------------------------------------------------------------------------------------
g----------x4-----------x4---------x4--------------------------------------------
d-----88-8------1010--10----- 66-6---------------------------------------------------
a-----88-6------1010--10----- 66-6---------------------------------------------------
e-----66-6------8--8---8------44-4--------------------------------------------------
    pm…|       pm…..|      pm...|


   “It’s just something about his smile”
e------------------------------------------------------------------------------------
b-----------------------------------------------------------do this till end of song-
g-------------------x4-------x4-------x4---------------------------------------------
d---8-----------10------6----------8-------------------------------------------------
a---8-----------10------6----------8----------------------------------------------
e---6-----------8--------4---------6------------------------------------------------
            
Submit corrections


        Handsome Boy lessons Hard to play? Try these video lessons and learn fast Handsome Boy lessons
        
↑ Back to top | Tablatures and chords for acoustic guitar and electric guitar, ukulele, drums are parodies/interpretations of the original songs. You may use it for private study, scholarship, research or language learning purposes only