Home » S » Savage Garden »

Savage Garden - To The Moon And Back Bass

Artists:  A B C D E F G H I J K L M N O P Q R S T U V W X Y Z # 

To The Moon And Back Bass

(ver. 2) Click to play this song!
Savage Garden
 Rating:
3.9/5 (23 votes)
                [INTRO]
          (drums)
G|---------|-----------------|-----------------|-----------------|-----------------|-----|
D|---------|-----------------|-1---------------|-----------------|-----------------|-----|
A|-------1-|-3-3---------1-3-|---3-------------|-------------1---|---------------1-|-3---|
E|---1-3---|-----------3-----|-----------------|-3-3-------3---3-|-4-4-------1-3---|-----|
   3 + 4 +   1 + 2 + 3 + 4 +   1 + 2 + 3 + 4 +   1 + 2 + 3 + 4 +   1 + 2 + 3 + 4 +


[PRE-CHORUS 1] (Momma never..)

G|-----------------|-----------------|-----------------|-------------------||------|
D|-----------------|-----------------|-----------------|-----------------o-||------|
A|-3---------------|-1---------------|-----------------|-----------------o-||------|
E|-----------------|-----------------|-3---------------|-4-----------------||-4----| (and she'll say to him)
   1 + 2 + 3 + 4 +   1 + 2 + 3 + 4 +   1 + 2 + 3 + 4 +   1 + 2 + 3 + 4 +                            1  2

G|---------|
D|---------|
A|-------1-|
E|---1-3---|
   3 + 4 + 


[CHORUS]

G|-----------------|-----------------|-----------------|-------------------||
D|-----------------|-----------------|-----------------|-----------------o-||
A|-3-3---3-----1-3-|-----------------|-----------------|---------------1-o-||
E|-----------3-----|-4-4---4---4-1-4-|-6-6---6---6-4-6-|-3-3---3---1-3-----||
   1 + 2 + 3 + 4 +   1 + 2 + 3 + 4 +   1 + 2 + 3 + 4 +   1 + 2 + 3 + 4 +


[INTERLUDE 1]

G|-----------------|-----------------|-----------------|-----------------|
D|-----------------|-1---------------|-----------------|-----------------|
A|-3-3---------1-3-|---3-------------|-------------1---|---------------1-|
E|-----------3-----|-----------------|-3-3-------3---3-|-4-4-------1-3---|
   1 + 2 + 3 + 4 +   1 + 2 + 3 + 4 +   1 + 2 + 3 + 4 +   1 + 2 + 3 + 4 +


[VERSE 2/PRE-CHORUS 2]

                                                                          x4
G|-----------------|-----------------|-----------------|-------------------||------|
D|-----------------|-1---------------|-----------------|-----------------o-||------|
A|-3-3---------1-3-|---3-------------|-------------1---|---------------1-o-||------|
E|-----------3-----|-----------------|-3-3-------3---3-|-4-4-------1-3-----||-4----| (what a pleasant dream)
   1 + 2 + 3 + 4 +   1 + 2 + 3 + 4 +   1 + 2 + 3 + 4 +   1 + 2 + 3 + 4 +                        1    2

G|---------|
D|---------|
A|-------1-|
E|---1-3---|
   3 + 4 + 


[INTERLUDE 2] (hold on...)

G|-----------------|-----------------|-----------------|-----------------|
D|-----------------|-----------------|-----------------|-----------------|
A|-3---------------|-1---------------|-----------------|-----------------|
E|-----------------|-----------------|-3---------------|-4---------------|
   1 + 2 + 3 + 4 +   1 + 2 + 3 + 4 +   1 + 2 + 3 + 4 +   1 + 2 + 3 + 4 +  


[GUITAR SOLO/FINAL PRE-CHORUS]
                                             
                                                                          x4
G|-----------------|-----------------|-----------------|-------------------||------|
D|-----------------|-1---------------|-----------------|-----------------o-||------|
A|-3-3---------1-3-|---3-------------|-------------1---|---------------1-o-||------|
E|-----------3-----|-----------------|-3-3-------3---3-|-4-4-------1-3-----||-4----| (and she'll say to him)
   1 + 2 + 3 + 4 +   1 + 2 + 3 + 4 +   1 + 2 + 3 + 4 +   1 + 2 + 3 + 4 +                            1  2

G|---------|
D|---------|
A|-------1-|
E|---1-3---|
   3 + 4 + 


[OUTRO]
                                                                         x4, fade last time
G|-----------------|-----------------|-----------------|-------------------||
D|-----------------|-1---------------|-----------------|-----------------o-||
A|-3-3---------1-3-|---3-------------|-------------1---|---------------1-o-||
E|-----------3-----|-----------------|-3-3-------3---3-|-4-4-------1-3-----||
   1 + 2 + 3 + 4 +   1 + 2 + 3 + 4 +   1 + 2 + 3 + 4 +   1 + 2 + 3 + 4 +            
Submit corrections

↑ Back to top | Tablatures and chords for acoustic guitar and electric guitar, ukulele, drums are parodies/interpretations of the original songs. You may use it for private study, scholarship, research or language learning purposes only