» » »

Savage Garden - Break Me Shake Me Bass

Artists:  A B C D E F G H I J K L M N O P Q R S T U V W X Y Z # 

Break Me Shake Me Bass

(ver. 1) Click to play this song!
Savage Garden
 Rating:
4/5 (4 votes)

 Break Me Shake Me lessons Tabs too difficult? Try these video lessons and learn fast
 
                Savage Garden - Break Me Shake Me
Edited by Ben (correct version)

Number with * = more than 4-5 notes. Listen the song for the beat.
INTRO
G----------------------------------------|
D-2*--0-0-00-----------------------------|
A--------------2-22-2-2------------------|
E----------------------------------------|
VERSE 1
G----------------------------------------|
D-2*--5-5-55-----------------------------|
A--------------2-22-2-2------------------|
E----------------------------------------|
CHORUS
G-----------------------------------------|
D-2*----2------------5-2------------------|
A---2-5--------------------5-5-2*-5-2-5-2-|
E---------3*/7*---0*----------------------|
VERSE 2
G----------------------------------------|
D-2*--5-5-55-----------0-----------------|
A--------------2-22-2--------------------|
E----------------------------------------|
WALKING BASS PART:
G----------------------------------------|
D-22-------------------------------------|
A----55-33-22-33-22----------------------|
E-------------------33-00----------------|

INTRO (2x)
VERSE 1 (7x)
CHORUS (2x)
VERSE 2 (5x)
(At the end of this part, play 0 on A String (Only 1x, at 1:20)
CHORUS (2x)
WALKING BASS PART (5x)
SOLO 2x(Same as CHORUS)
VERSE 2 (6x)
CHORUS (4x)
            
Submit corrections


        Break Me Shake Me lessons Hard to play? Try these video lessons and learn fast Break Me Shake Me lessons
        
↑ Back to top | Tablatures and chords for acoustic guitar and electric guitar, ukulele, drums are parodies/interpretations of the original songs. You may use it for private study, scholarship, research or language learning purposes only