» » »

Satyricon - Pentagram Burns Tabs

Artists:  A B C D E F G H I J K L M N O P Q R S T U V W X Y Z # 

Pentagram Burns Tabs

(ver. 1) Click to play this song!
Satyricon
 Rating:
4/5 (8 votes)
                THIS IS MY FIRST TAB, SO, ERMMM HOPE ITS OK DUDES & DUDETTES...


TUNING: 1/2 A STEP DOWN (Eb Ab Db Gb Bb Eb)

INTRO

E]---------------------------------|
B]---------------------------------|
G]-99999999-9/13-13-13-10/14-14-14-|
D]-99999999-9/13-13-13-10/14-14-14-|
A]-77777777-7/11-11-11-8 /12-12-12-|
E]-77777777-7/11-11-11-8 /12-12-12-|

(THEN ON EVERY 3RD TIME YOU PLAY THIS  THERE IS A SLLIGHT ALTERATION)

E]-----------------------------------------------------------|
B]-----------------------------------------------------------|
G]-99999999-9/11-11-11/12/11-11-11-99999999-9/14-14-14-10/13-|
D]-99999999-9/11-11-11/12/11-11-11-99999999-9/14-14-14-10/13-|
A]-77777777-7/11-11-11/12/11-11-11-77777777-7/12-12-12-8 /11-|
E]-77777777-7/11-11-11/12/11-11-11-77777777-7/12-12-12-8 /11-|

VERSE

E]----0-----------|
B]----0-----------|
G]----0-----------|
D]-2--2-----------|
A]-2----------1-3-|
E]-0----3-2-1-----|

(THEN ON EVERY 3RD TIME PLAYING... AGAIN)

E]----0-------------|
B]----0-------------|
G]----0-------------|
D]-2--2-------------|
A]-2----------1-2-3-|
E]-0----3-2-1-------|

PRE CHORUS, WELL, LIKE END OF VERSE LEAD LIKE PART...
I'D SAY IM ONLY ABOUT 40% RIGHT ON THIS PART, IF YOU DONT THINK IT WORKS JUST CARRY ON
THE VERSE LIKE IT DOES IN THE BACKGROUND OF THE SONG, SORRY

E]-0--------------|
B]-0-0---O--------|
G]-4--4--4-2-4--4-|
D]-2---2---0-2--2-|
A]----------------|
E]----------------|

CHORUS!!!

E]---------------------------------|
B]---------------------------------|
G]-99999999-9/13-13-13-10/14-14-14-|
D]-99999999-9/13-13-13-10/14-14-14-|     (ACCTAULLY ITS JUST LIKE THE INTRO
A]-77777777-7/11-11-11-8 /12-12-12-|      UNTIL SUPRISINGLY YOU'VE PLAYED THE
E]-77777777-7/11-11-11-8 /12-12-12-|      WHOLE THING 3 TIMES)

(ON 3RD TIME)

E]-----------------------------------------------------------|
B]-----------------------------------------------------------|
G]-99999999-9/11-11-11/12/11-11-11-99999999-9/14-14-14-10/13-|
D]-99999999-9/11-11-11/12/11-11-11-99999999-9/14-14-14-10/13-|
A]-77777777-7/11-11-11/12/11-11-11-77777777-7/12-12-12-8 /11-|
E]-77777777-7/11-11-11/12/11-11-11-77777777-7/12-12-12-8 /11-|

(THEN, WHEN YOU HAVE PLAYED THAT WHOLE THING 3 TIMES, ITS TIME FOR A CHANGE)

E]--------------------------|
B]--------------------------|
G]--------------------------|
D]-22222222-3/6-6-6-3/7-7-7-|
A]-22222222-3/6-6-6-3/7-7-7-|
E]-00000000-1/4-4-4-1/5-5-5-|

(ON 3RD TIME)

E]----------------------------------------------|
B]----------------------------------------------|
G]----------------------------------------------|
D]22222222-3/6-6-6-7/6-6-6-22222222-3/3-3-3-3/6-|
A]22222222-3/6-6-6-7/6-6-6-22222222-3/3-3-3-3/6-|
E]00000000-1/4-4-4-5/4-4-4-00000000-1/5-5-5-1/4-|

(VESRE)
(PRE-CHORUS) (OPTOINAL)
(CHORUS)

BRIDGE

E]-------|
B]-------|
G]-------|
D]-2-----| (JUST GIVE IT A STRUM AND GO WITH THE SONG)
A]-2-----|
E]-0-----|

SOLO

E]-----------------------------------------------------------|
B]-----------------------------------------------------------|
G]-----------------------------------------------------------|
D]----9-10-9-7---7-6----------------9-10-9-7---7-6-----------|
A]--7----------8-----7-8-11-11---7-----------8-----7-8-12-12-|
E]-0---------------------------0-----------------------------|

BRIDGE AGAIN

E]----------------|
B]----------------|
G]----------------|
D]-2----------7-7-| (FIND THE TIMING YOURSELF)
A]-2----------7-7-|
E]-0----------5-5-|

REPEAT SOLO, WHILE OTHER GUITAR HARMONISES THIS OVER THE TOP

E]-----------------------------------------------------|
B]-----5-6-5-3---3-2-------------5-6-5-3---3-2---------|
G]---2---------3-----2-3-6-6---2---------3-----2-3-7-7-|
D]-----------------------------------------------------|
A]-----------------------------------------------------|
E]-0-------------------------0-------------------------|

(VERSE)
(PRE-CHORUS) (IF YOU TRUST THIS TAB)
(CHORUS)

THATS IT, IM SURE ITS 99.9% CORRECT APART FROM THE PRE-CHORUS THING, BUT IF YOU WANNA
METAL BAND CALLED 'BENEDICTION'? THE BASSIST FROM THAT, FRANK, IS MY DAD... U DIDNT NEED 
KNOW, ERM, HAVE FUN AND ROCK THE F*CK ON!!!
            
Submit corrections

↑ Back to top | Tablatures and chords for acoustic guitar and electric guitar, ukulele, drums are parodies/interpretations of the original songs. You may use it for private study, scholarship, research or language learning purposes only