» » »

Sasquatch Mister - Knuckle Down Tabs

Artists:  A B C D E F G H I J K L M N O P Q R S T U V W X Y Z # 

Knuckle Down Tabs

(ver. 1) Click to play this song!
Sasquatch Mister
 Rating:
4.4/5 (14 votes)

 Knuckle Down  lessons Tabs too difficult? Try these video lessons and learn fast
 
                 [Intro]

D|----------------------------------------|---------------------------------------|
A|----------------------------------------|---------------------------------------|
F|----------------------------------------|---------------------------------------|
C|----------------------------------------|---------------------------------------|
G|--------0--0----------0-0---------------|-------0--0---------0-0----------------|
C|--10-12-0--0--0-10h12-0-0--10-12-10-12--|--9-10-0--0--0-9h10-0-0--9-10-9-10-----|
                                                                                    x 3
D|----------------------------------------|---------------------------------------|
A|----------------------------------------|---------------------------------------|
F|----------------------------------------|---------------------------------------|
C|----------------------------------------|---------------------------------------|
G|--------0--0----------0-0---------------|-------0--0----------0-0---------------|
C|--10-12-0--0--0-10h12-0-0--10-12-10-12--|-10-12-0--0--0-10h12-0-0--10-12-10-12--|


 [Chorus]
                                 
D|---------------------------|--------------------------------|
A|---------------------------|--------------------------------|
F|---------------------------|--------------------------------|
C|---------------------------|--------------------------------|
G|-----10/12--12--12--12-----|---10/12-12-12----12--12\-------|
C|-----10/12--12--12--12-----|---10/12-12-12----12--12\-------|
                                                                x 2
D|---------------------------|--------------------------------|
A|---------------------------|--------------------------------|
F|---------------------------|--------------------------------|
C|------10--10--10--10-------|--------------------------------|
G|------10--10--10--10-------|---9---9-9---9\5--5-5-----------|
C|---------------------------|---9---9-9---9\5--5-5-----------|


 [Verse]

D|----------------------------------------|---------------------------------------|
A|----------------------------------------|---------------------------------------|
F|----------------------------------------|---------------------------------------|
C|----------------------------------------|---------------------------------------|
G|--------0--0----------0-0---------------|-------0--0---------0-0----------------|
C|--10-12-0--0--0-10h12-0-0--10-12-10-12--|--9-10-0--0--0-9h10-0-0--9-10-9-10-----|
                                                                                    x 2
D|----------------------------------------|---------------------------------------|
A|----------------------------------------|---------------------------------------|
F|----------------------------------------|---------------------------------------|
C|----------------------------------------|---------------------------------------|
G|--------0--0----------0-0---------------|-------0--0----------0-0---------------|
C|--10-12-0--0--0-10h12-0-0--10-12-10-12--|-10-12-0--0--0-10h12-0-0--10-12-10-12--|


 [Chorus]

D|---------------------------|--------------------------------|
A|---------------------------|--------------------------------|
F|---------------------------|--------------------------------|
C|---------------------------|--------------------------------|
G|-----10/12--12--12--12-----|---10/12-12-12----12--12\-------|
C|-----10/12--12--12--12-----|---10/12-12-12----12--12\-------|
                                                                x 2
D|---------------------------|--------------------------------|
A|---------------------------|--------------------------------|
F|---------------------------|--------------------------------|
C|------10--10--10--10-------|--------------------------------|
G|------10--10--10--10-------|---9---9-9---9\5--5-5-----------|
C|---------------------------|---9---9-9---9\5--5-5-----------|


 [Bridge]
   
D|-------------------------------------|---------------------------------------|
A|-------------------------------------|---------------------------------------|
F|-------------------------------------|---------------------------------------|
C|--7-7-7-7-7-7-7-7---7-7-7-7-7-7-7-7--|--7-7-7-7-7-7-7-7---7-7-7-7-7-7-7-7----|  
G|--5-5-5-5-5-5-5-5---5-5-5-5-5-5-5-5--|--5-5-5-5-5-5-5-5---5-5-5-5-5-5-5-5----| (all down-strokes)
C|-------------------------------------|---------------------------------------|
                                                                                 x 2
D|-------------------------------------|---------------------------------------|
A|-------------------------------------|---------------------------------------|
F|-------------------------------------|---------------------------------------|
C|-------------------------------------|---------------------------------------| 
G|---3--3---3-3-3-3-3-3-3-3-3-3-3-0----|--3/5--5--5---5-5-5/6-6-6-6\5-5-5------|
C|---3--3---3-3-3-3-3-3-3-3-3-3-3-0----|--3/5--5--5---5-5-5/6-6-6-6\5-5-5------| (all down-strokes)


 [Guitar Fill]

D|---------------------------|--------------------------------|
A|---13~~~~~~~~--------------|--------------------------------|
F|---------------------------|---10~~~~~~~~-------------------|
C|---------------------------|--------------------------------|
G|---------------------------|--------------------------------|
C|---------------------------|--------------------------------|
                                                                
D|---------------------------|--------------------------------|
A|---------------------------|--------------------------------|
F|---------------------------|--------------------------------|
C|---12~~~~------------------|--------------------------------|
G|---------------------------|--------------------------------|
C|---------------------------|--------------------------------|


 [Verse]

D|----------------------------------------|---------------------------------------|
A|----------------------------------------|---------------------------------------|
F|----------------------------------------|---------------------------------------|
C|----------------------------------------|---------------------------------------|
G|--------0--0----------0-0---------------|-------0--0---------0-0----------------|
C|--10-12-0--0--0-10h12-0-0--10-12-10-12--|--9-10-0--0--0-9h10-0-0--9-10-9-10-----|
                                                                                    x 2
D|----------------------------------------|---------------------------------------|
A|----------------------------------------|---------------------------------------|
F|----------------------------------------|---------------------------------------|
C|----------------------------------------|---------------------------------------|
G|--------0--0----------0-0---------------|-------0--0----------0-0---------------|
C|--10-12-0--0--0-10h12-0-0--10-12-10-12--|-10-12-0--0--0-10h12-0-0--10-12-10-12--|


 [Chorus]

A|---------------------------|--------------------------------|
F|---------------------------|--------------------------------|
C|---------------------------|--------------------------------|
G|-----10/12--12--12--12-----|---10/12-12-12----12--12\-------|
C|-----10/12--12--12--12-----|---10/12-12-12----12--12\-------|
                                                                x 2
D|---------------------------|--------------------------------|
A|---------------------------|--------------------------------|
F|---------------------------|--------------------------------|
C|------10--10--10--10-------|--------------------------------|
G|------10--10--10--10-------|---9---9-9---9\5--5-5-----------|
C|---------------------------|---9---9-9---9\5--5-5-----------|


 [Bridge]

D|-------------------------------------|---------------------------------------|
A|-------------------------------------|---------------------------------------|
F|-------------------------------------|---------------------------------------|
C|--7-7-7-7-7-7-7-7---7-7-7-7-7-7-7-7--|--7-7-7-7-7-7-7-7---7-7-7-7-7-7-7-7----|  
G|--5-5-5-5-5-5-5-5---5-5-5-5-5-5-5-5--|--5-5-5-5-5-5-5-5---5-5-5-5-5-5-5-5----| (all downstrokes)
C|-------------------------------------|---------------------------------------|
                                                                                 x 2
D|-------------------------------------|---------------------------------------|
A|-------------------------------------|---------------------------------------|
F|-------------------------------------|---------------------------------------|
C|-------------------------------------|---------------------------------------| 
G|---3--3---3-3-3-3-3-3-3-3-3-3-3-0----|--3/5--5--5---5-5-5/6-6-6-6\5-5-5------|
C|---3--3---3-3-3-3-3-3-3-3-3-3-3-0----|--3/5--5--5---5-5-5/6-6-6-6\5-5-5------| (all downstrokes)            
Submit corrections


        Knuckle Down  lessons Hard to play? Try these video lessons and learn fast Knuckle Down  lessons
        
↑ Back to top | Tablatures and chords for acoustic guitar and electric guitar, ukulele, drums are parodies/interpretations of the original songs. You may use it for private study, scholarship, research or language learning purposes only